nursery rhymes

Misc. Children



Date: Sun, 19 Apr 1998 01:40:04 +1000
From: Kevin Woodgate 
Subject: m/misc_children/nursery_rhymes.tab



Nursery Rhymes

Transcribed by K Woodgate

Easy melody Version for children

I did these songs for my 6 year old as a way to introduce him to music

                                Mary Had A Little Lamb
E ------------------------------------|----------------------------------|
B ------------------------------------|----------------------------------|
G ------------------------------------|----------------------------------|
D --------------------------------0-0-|----------------------------------|
A -2-0---0--2--2--2--0--0---0--2------|-2--0---0--2--2--2--0--0--2--0----|
E -----3------------------------------|------3-------------------------3-|
    Mar-y  had a li-tle lamb lit-tle lamb lit-tle lamb  

                                Merrily We Roll Along
E---------------------------------|---------------------------------------|
B---------------------------------|---------------------------------------|
G----------------------------0--0-|---------------------------------------|
D-2-0--0--2--2--2--0--0--0--2-----|-2--0-----0--2--2--2--0---0--2---0-----|
A----3----------------------------|-------3-----------------------------3-|
E---------------------------------|---------------------------------------|
   Mer- ri- ly we roll a -long roll a- longroll a-long  Mer-ri-ly  we roll
a- long o'er the deep blue sea

                                  Three Blind Mice
E -------------------------------------------------------------------------
B -------------------------1-1-0-0-1-----1-1-0--0-1-----1-1-0--0-1---------
G ---------0------0------0------2---0-0-0------2---0-0-0------2----0-0-----
D 2-0--2-0---3-3-2-3-3-2----------------------------------------------2-0--
A ---3----3--------------------------------------------------------------3-
E -------------------------------------------------------------------------

                           Twinkle Twinkle Little Star
E---------------------------------------------------------------------------
B---------------------------------------------------------------------------
G---0-0-2-2-0------------0-0---------0-0-------------0-0-2-2-0--------------
D------------3-3-2-2-0-0----3-3-2-2-0---3-3-2-2-0--------------3-3-2-2-0-0--
A3-3--------------------3-------------------------3-3---------------------3-
E---------------------------------------------------------------------------
     

                            Old McDonald Had A Farm

   F        Bb       F          C     F                   Bb    F
 C     F    
E -1--1--1-------------5--5--3--3--1----1--1--1--------------5--5--3--3-1
B ---------1--3--3--1----------------1-----------1--3--3--1--------------
G -----------------------------------------------------------------------
D -----------------------------------------------------------------------
A -----------------------------------------------------------------------
E -----------------------------------------------------------------------
Old macdonald had a farm eeIeeIo and on this farm he had some chicks eeIeeIo

E -----1--1--1------1--1--1---1--1--1--1--1--1---1--1--1--1---1----1-----|
B -1-1---------1--1------------------------------------------------------|
G -----------------------------------------------------------------------|
D -----------------------------------------------------------------------|
A -----------------------------------------------------------------------|
E -----------------------------------------------------------------------|
With a chick chick here and a chick chick there here a chick there a chick
every where a chick chick

E -1--1--1------------5--5--3--3--1-------|
B --------1--3--3--1----------------------|
G ----------------------------------------|
D ----------------------------------------|
A ----------------------------------------|
E ----------------------------------------|
  Old mac don ald had a farm   ee   I   ee  I   o


                                      London Bridge
E-----------------------------------------|---------------------------------
B-----------------------------------------|---------------------------------
G-0--2--0----------0-----------------0----|--0--2--0----------0-----0-------
D---------3--2--3-----0--2--3--2--3-------|-----------3--2--3----0-----2----
A-----------------------------------------|-------------------------------3-
E-----------------------------------------|---------------------------------
London bridge is falling down falling down London bridge is falling down My 
Fair lady

                                          Polly put the kettle on
E-----------------------------------------|--------------------------------
B-----------------------------------------|--------------------------------
G-0-2-0-----------------------------------|-0--2--0------------------------
D-------3--2--0-------0--2--0-------------|---------3--2--0------2---------
A---------------3--3----------3--2--0-----|-----------------3-3----0--2--3-
E-------------------------------------3-3-|--------------------------------
Polly put  the kett le  on Polly put  the ket tle on Pol  ly put he ket tle
 on,  We'll all have tea 
Sukey take it  off  a gain,  Sukey take it  off a gain,  Sukey take it off  a
 gain, They've all gone away











































variations - click chord images
Transpose chords:
Tuning:
Cool service:
View: Size:
A  A  A
Rating:
Layout:
  • Currently 0/5 Stars.
  • 1
  • 2
  • 3
  • 4
  • 5
 
Accuracy:
  • Currently 1.6/5 Stars.
  • 1
  • 2
  • 3
  • 4
  • 5
 
click stars to rate
Chordie recommends:
Learn to play songs at Jamplay.com with video guitar lessons
Songbook:
Login to add this song to your songbook
Support the artist
Preview/buy this song
MSN Music
Why this non-profit ad?

 
login to add comments/video/corrections