Chordie logo


amazing grace   Misc. Traditional









Date: Thu, 30 Apr 1998 10:12:41 +1000
From: Kevin Woodgate 
Subject: m/misc_traditional/amazing_grace.tab

              Amazing Grace

Transcribed by K Woodgate

Easy melody Version

         G                     C         G                             D7 
e|-----|--------|----------|--------|----------|-----------|---------|-----
B|-----|----0---|-0----0---|--------|----------|------0----|-0-----0-|-3---
G|---0-|-0---2-0|--------2-|-0------|--------0-|-0-----2-0-|-----2---|-----
D|-0---|--------|----------|-----2--|-0----0---|-----------|---------|-----
A|-----|--------|----------|--------|----------|-----------|---------|-----
E|-----|--------|----------|--------|----------|-----------|---------|-----
1  A -  ma - zing Grace, how  sweet the sound, That saved a wretch like me.
2 'Twas grace, that taught my heart to fear,And grace my  fears re  lieved.
3  Through man-y  dan - gers, toils and snares, I have al -  ready    come.
4  When we've been there ten  thou -sand years, bright shi-ning as the sun,
5  A -  ma - zing Grace, how  sweet the sound, That saved a wretch like me.

         G         G7        C       G                  D7       C     G  
e|-----|---------|---------|-------|--------|---------|--------|-----|----
B|-0-3-|-3--0----|-0----0--|-------|--------|----0----|-0------|-----|----
G|-----|-----2-0-|-------2-|-0-----|------0-|-0---2-0-|------2-|-0---|-0--
D|-----|---------|---------|----2--|-0---0--|---------|--------|-----|----
A|-----|---------|---------|-------|--------|---------|--------|-----|----
E|-----|---------|---------|-------|--------|---------|--------|-----|----
1  I    once was  lost, but now I'm found, Was blind, but  now   I  see.     
2  How  prec-ious did that grace appear,   The hour   I    first be-lieved.
3  'Tis grace hath brought me safe, thus far, And grace will lead me home.   
4  We've no less days to  sing God's praise, Than when we first be -  gun.   
5  I    once was  lost, but now I'm found, Was blind, but  now   I see.








Important: The song above is NOT stored on the Chordie server. The original song is hosted at tabfu.thudspace.net. Chordie works as a search engine and provides on-the-fly formatting. Chordie does not index songs against artists/composers will. To remove this song please click here.

This song is displayed as text-only. Transposing and tuning is only available for chordpro-songs.

Login - add to songbook

Rating click stars to rate

Layout
Accuracy

SHARE PAGE  




You need to log in to post comments