Chordie logo

the only way   Misery Loves Co









THE ONLY WAY
"Misery Loves Co."
from the self titled album
transcribed by Brendan

Dropped ‘D’ Tuning

INTRO RIFF  *Trem Pick
E||----------------------||
B||----------------------||
G||----------------------||
D||--*-------*------*----||
A||--4--5---4--5---4--5--||
D||--4--5---4--5---4--5--||

MAIN RIFF
E||------------------------------------------------------------------||
B||------------------------------------------------------------------||
G||------------------------------------------------------------------||
D||------------------------------------------------------------------||
A||-0-0--0--0-0--0--4-3--0--4-3-1-----0-0--0--0-0--0--4-3--0--7-7----||
D||-0-0--0--0-0--0--4-3--0--4-3-1-----0-0--0--0-0--0--4-3--0--7-7----||

CHORUS RIFF
E||--------------------------------------------------||
B||--------------------------------------------------||
G||--------------------------------------------------||
D||--------------------------------------------------||
A||-5---5-5---5--5---5-5---5----5--0-0---1--0-0------||
D||-5---5-5---5--5---5-5---5----5--0-0---1--0-0------||

FILL RIFF
E||----------|--------------------------------------------------------------||
B||----------|--------------------------------------------------------------||
G||----------|--------------------------------------------------------------||
D||----------|--------------------------------------------------------------||
A||--0-0--0--|----0-0-0--0-0-0--0-0-0--0-0-0--0-0-0--0-0-0--0-0-0--0-0-0----||
D||--0-0--0--|----0-0-0--0-0-0--0-0-0--0-0-0--0-0-0--0-0-0--0-0-0--0-0-0----||


Brendan@iaccess.com.au







Important: The song above is NOT stored on the Chordie server. The original song is hosted at tabfu.thudspace.net. Chordie works as a search engine and provides on-the-fly formatting. Chordie does not index songs against artists/composers will. To remove this song please click here.

This song is displayed as text-only. Transposing and tuning is only available for chordpro-songs.

Login - add to songbook

Rating click stars to rate

Layout
Accuracy

SHARE PAGE  

You need to log in to post comments