Guitar Tabs, Chords and Lyrics


nights in white satin   Moody Blues








From: PRHandley 
Date: Mon, 9 Mar 1998 06:37:21 EST
Subject: m/moody_blues/nights_in_white_satin.tab






Author/Artist: Justin Hayward
Title: Nights In White Satin
Transcribed by: Paul R Handley

Strum slowly in 3/4 time (I suggest you listen to the original
recording first to get the pattern).
I have arranged verse/chorus differently from Moodies 
in that I play verse1:verse2:chorus and then a full repeat.
Also verse 1 is an octave lower then normal - I think it gives
a nice feel - you can always play it as verse 2 if you don't agree.

Words are:

Nights in white satin
Never reaching the end
Letters I've written
Never meaning to send

Beauty I'd always missed
With these eyes before
Just what the truth is
I can't say anymore

Cause I love you
Yes I love you
Oh how I love you .........

-|-----------|-----------|-----------|-----------|-----------|-----------|
-|-----------|-----------|-----------|-----------|-----------|-----------|
-|-----------|-----------|-----------|-----------|-----------|-----------|
-|-----------|-----------|-----------|-----------|-----------|-----------|
-|-----------|-----------|-----------|-----------|-----------|-----------|
-|-----------|-----------|-----------|-----------|-----------|-----------|
  Em          D           Em          D           Em          Em              
       ---------------------------INTRO----------------------------

-|-----------|----------||-----------|-----------|-----------|-----------|
-|-----------|----------||-----------|-----------|-----------|-----------|
-|-----------|----------||-----------|-----------|-----------|-----------|
-|-----------|----------||-----------|-----------|-----------|-----------|
-|-----------|----------||-----------|-2---0-----|-0---0-----|-----------|
-|-----------|----------||-----------|---------3-|-----------|-----------|
  Em          Em         Em           Em          D           D               
     -----INTRO-----                 Nights in white sat-in  

-|-----------|-----------|-----------|-----------|-----------|-----------|
-|-----------|-----------|-----------|-----------|-----------|-----------|
-|-----------|-----------|-----------|-----------|-----------|-----------|
-|-----------|-----------|-----------|-----------|-----------|-2---0-----|
-|-----2---2-|-2---0-----|-0---------|-----------|-----------|---------3-|
-|-----------|---------0-|-----------|-----------|-----------|-----------|
  Em          Em          D           D           C           C               
     Nev-er  reach-ing the end                               Lett-ers I've

-|-----------|-----------|-----------|-----------|-----------|-----------|
-|-----------|-----------|-----------|-----------|-----------|-----------|
-|-----------|-----------|-----------|-----------|-----------|-----------|
-|-0---------|-----------|-----------|-----------|-----------|-----------|
-|-----2-----|-----------|-----0---0-|-0-------0-|-----------|-----------|
-|-----------|-----------|-----------|-----0-----|-3-p-0-----|-----------|
  G           G           F           F           Em          Em              
  writ-ten                    Nev-er mean-ing  to  se-nd

-|-----------|-----------|-----------|-----------|-----------|-----------|
-|-----------|-----------|-----------|-----------|-----------|-----------|
-|-----------|-----------|-----------|-----------|-----------|-----------|
-|-----------|-9---7-\-5-|-7---7-----|-7---------|-----9---9-|-9---7-----|
-|-----------|-----------|-----------|-----------|-----------|---------10|
-|-----------|-----------|-----------|-----------|-----------|-----------|
  Em          Em          D           D           Em          Em              
              Beau-ty I'd  al-ways   missed          With these ey-es  be-

-|-----------|-----------|-----------|-----------|-----------|-----------|
-|-----------|-----------|-----------|-----------|-----------|-----------|
-|-----------|-----------|-----------|10---8-----|-8---------|-----------|
-|-7---------|-----------|-----------|---------10|-----9-----|-----------|
-|-----------|-----------|-----------|-----------|-----------|-----------|
-|-----------|-----------|-----------|-----------|-----------|-----------|
  D           D           C           C           G           G               
  -fore                             Just what the truth is

-|-----------|-----------|-----------|-----------|-----------|-----------|
-|-----------|-----------|-----------|-----------|-10--10----|-----------|
-|-----------|-----------|-----------|10--10-----|-----------|-----------|
-|-----7---7-|-7-------7-|-----------|-----------|-----------|-----------|
-|-----------|-----10----|-10-p-6----|-----------|-----------|-----------|
-|-----------|-----------|-----------|-----------|-----------|-----------|
  F           F           Em          Em          A           A               
      I can't say  an - y   mo-re    'Cause I     love you

-|-----------|-----12--12|-12p11h12--|-----------|-14b15-----|-14p12---12|
-|-----------|-----------|-----------|-----------|-----------|-----------|
-|-----------|-----------|-----------|-----------|-----------|-----------|
-|-----------|-----------|-----------|-----------|-----------|-----------|
-|-----------|-----------|-----------|-----------|-----------|-----------|
-|-----------|-----------|-----------|-----------|-----------|-----------|
  A           A           C           C           C           C               
                   Yes I   lo-ve you               Oh-oh        ho-w   I

-|-14p12---12|-----------|-----------|-10--------|-7---------|-----------|
-|-----------|-----------|-----------|-----------|-----------|-----------|
-|-----------|-----------|-----------|-----------|-----------|-----------|
-|-----------|-----------|-----------|-----------|-----------|-----------|
-|-----------|-----------|-----------|-----------|-----------|-----------|
-|-----------|-----------|-----------|-----------|-----------|-----------|
  Em          Em          D           D           Em          Em              
  lo-ve   you_ _ _ _ _ _ _ _ _ _ _ _ _ oo_ _ _ _ _ oo_ _ _ _

-|-----------|----------||-----------|-----------|-----------|-----------|
-|-----------|----------||-----------|-----------|-----------|-----------|
-|-----------|----------||-----------|-----------|-----------|-----------|
-|-----------|----------||-----------|-----------|-----------|-----------|
-|-----------|----------||-----------|-----------|-----------|-----------|
-|-----------|----------||-----------|-----------|-----------|-----------|
  D           D                                                               









Important: The song above is NOT stored on the Chordie server. The original song is hosted at tabfu.thudspace.net. Chordie works as a search engine and provides on-the-fly formatting. Chordie does not index songs against artists/composers will. To remove this song please click here.

This song is displayed as text-only. Transposing and tuning is only available for chordpro-songs.

Login - add to songbook

Rating click stars to rate

Layout
Accuracy

SHARE PAGE  




You need to log in to post comments