Guitar Tabs, Chords and Lyrics


armageddon has come to pass   Mork Gryning











Date: Fri, 04 Apr 1997 03:09:44 PST
From: Krikka Dmon Lilliehöök 
To: guitar@olga.net
Subject: tab

Tabbed by Krikka Dmon Liliehook.
ALAS!!! HO DRAKON HO MEGAS!!!!

Mork gryning: Armageddon has come to pass. (The intro)

Part I
|--------------------------------------------0--------|
|------1-----------3-----------3-----------3---3------|
|----2---2-------0---0-------0---0-------0-------0----|
|--2-------2---2-------2---4-------4---4-----------4--|
|0-----------3-----------5-----------5----------------|
|-----------------------------------------------------|

Part II                              Part III
|-----------------------------------|----------|
|-----------------------------------|----------|
|-----0-----0-----0------0----------|----------|
|---2-----2-----0------0------------|----------|
|-0-----3-----2---------------------|----------|
|-------------------3---------------|-0--------|

Part IV                         Part V
|----------------------------| |------------------------------------|
|----------------------------| |------------------------------------|
|-------0-----------0--------| |-------0-----------0----------------|
|-----5---5-------4---4------| |-----5---5-------4---4--------------|
|---7-------7---7-------7----| |---7-------7---7-------7------------|
|-0-----------0--------------| |-8-----------8----------------------|

Part VI
|----------------------------|
|--------0-------------------|
|----------0---------0-------|
|-----5------5-----4---4-----|
|---7------------7-------7---|
|-0------------0-------------|

Part VII        Part IIX
|--------------|-----------------|
|--------------|--------0--------|
|-------0------|----------0------|
|-----5---5----|-----5------5----|
|---7-------7--|---7-------------|
|-0------------|-0---------------|


Order:

I   x4
II  x6
III x1
IV  x2
V   x2
IV  x2
V   x2
VI  x2
V   x2
IV  x2
V   x2
VII x4
IIX x2
VII+IIX Multipel times and vocal curses

IF YOU HAVE ANY BLACK TABS SUCH AS DARKTHRONE, IMMORTAL, BURZUM, DIMMU BORGIR, 
MAYHEM, CRADLE OF FILTH, THEATER OF TRAGEDY ETC ETC SEND THEM TO ME: 
FINSTERNIS@HOTMAIL.COM


---------------------------------------------------------
Get Your *Web-Based* Free Email at http://www.hotmail.com
---------------------------------------------------------







Important: The song above is NOT stored on the Chordie server. The original song is hosted at tabfu.thudspace.net. Chordie works as a search engine and provides on-the-fly formatting. Chordie does not index songs against artists'/composers' will. To remove this song please click here.

This song is displayed as text-only. Transposing and tuning is only available for chordpro-songs.

Login - add to songbook

Rating click stars to rate

Layout
Accuracy

SHARE PAGE  




You need to log in to post comments