sleaze factor

Steve Morse



Date: Fri, 02 Jan 1998 03:54:48 +1030
From: Godsize1 
Subject: TAB: 'Sleaze Factor' BY 'Steve Morse'


SLEAZE FACTOR - Steve Morse Band
>From the album 'Southern Steel'

Transcribed by Heath Barratt.  godsize1@cobweb.com.au
My Steve Morse and Dixie Dregs site is at.
http://members.tripod.com/~godsize1/morse.htm

E|--------------------------------------7----------||-----------------|---------
B|---------------------------------8-10-----10-8b9-||-----------------|---------
G|------------------------7-9-10----------7--------||-----------------|---------
D|--------7------7-9-10----------8-----------------||-----------------|-2-------
A|----7-9---10----------8--------------------------||--5--4---2---4---|----5--4-
E|-10----------8-----------------------------------||-----------0---0-|---------





E|-----|-------------------------|-------------------------|------------------|-
B|-----|-------------------------|-------------------------|------------------|-
G|-----|-------------------------|-------------------------|------------------|-
D|-----|--------2----------------|-2-----------------------|-2----------------|-
A|-----|-----------5--4--2---4---|----5--4------5----------|----5--4--2---4---|-
E|---0-|-------------------0---0-|---------2b3----3b4--5-0-|------------0---0-|-





E|-------------------------|------------------|-------------------------||-----
B|-------------------------|------------------|-------------------------||-----
G|----------------------12~|------------------|-------------------------||-----
D|-2--------------12-14-12~|------------------|-2-----------------------||-----
A|----5--4--11-12----------|----5--4--2---4---|----5--4------5------7-0-||---0-
E|-------------------------|--0---------0---0-|---------2b3----3b4------||-3---





E|----------------|--------------------------|--------------------------------|-
B|----------------|--------------------------|--------------------------------|-
G|--------------2~|----------b1----------4b5-|---2~---------------------4b6~--|-
D|-----4~---------|---------4b6-4------------|----------------4~--------------|-
A|-3-0-5~-3-2-0---|---0-3-0-5---5--3-2-0-----|------0---0-3-0-5~--3-2-0-------|-
E|----------------|-3------------------------|--------3-----------------------|-

                             Rhythm Under Melody

                                    *3

E|----------------------|-||---------||-----------|----------------------------
B|----------------------|-||*--8--8~*||-8-7-5-5---|----------------------------
G|----------------------|-||---7--7~-||-7-7-6-4---|--------2b4-2-2-2-2-2r------
D|--4b5--4--5-5---------|-||---6--6~-||-6-7-7-6---|----------------------2-0---
A|--5b7--5--3-2--5-5----|-||*--7--7~*||-7-5-------|----------------------------
E|---------------3-2--0-|-||---------||-----5-0-0-|--------------------------3-





E-|------------------------|-----------------|--------7--|----------------------
B-|------------------------|---7b8---r---5~--|----7b8----|------7b8--r-b1-r---5-
G-|----------/2-0-----0----|-----------------|-----------|----------------------
D-|---2~----------2-0------|-----------------|-----------|----------------------
A-|------------------------|-----------------|-----------|----------------------
E-|-0-------------------3~-|-----------------|-----------|----------------------





E|---|---------------9------|----0------------------------|-----|-------10-----
B|-5~|-7b8-------7b8---7b8--|------3-2-0-----0------------|-----|-------10b12--
G|---|----------------------|------------2-3---2b4--r-b2-r|-----|--------------
D|---|----------------------|-----------------------------|-----|--------------
A|---|----------------------|-----------------------------|-----|--------------
E|---|----------------------|-----------------------------|-----|--------------





E|-12-----9b10--p7-----|--------------------------|---0-------------------|----
B|-10b12-----------8---|--------------------------|-----3-2-0-------------|----
G|-------------------9~|------------9------11b12--|-----------3-2-0-2~----|----
D|---------------------|-------9-11---11-9--------|-----------------------|----
A|---------------------|-10-11--------------------|-----------------------|----
E|---------------------|--------------------------|-----------------------|----





E|-----|------------------------------|--------------------|-------------------
B|-----|--------15b17~-------------15-|-13------13b14------|-15b17--r-b2-r-----
G|-----|------------------------------|----14~-------------|-------------------
D|-----|------------------------------|--------------------|-------------------
A|-----|------------------------------|--------------------|-------------------
E|-----|------------------------------|--------------------|-------------------





E|------------15b17---|-------------------------------------|-------------------
B|---15-13------------|-------------------------------------|-------------------
G|---------14---------|------------14b16-14-14-14-14pr12----|----------------/2-
D|--------------------|----------------------------------14-|-------------------
A|--------------------|-------------------------------------|-------------------
E|--------------------|-------------------------------------|-------------------



                                                                         rhythm under solo

E|-----------|--------------------------12-|-----------------|-------||--------
B|-----------|--------9-10-11-12-----------|-8-7-5-5-5-3-----|-------||*-------
G|-0-----0---|--11b13------------11b13-----|-7-7-6-4-5-4-2-4-|-------||--------
D|---2-0-----|-----------------------------|-6-7-7-6-5-5-2-2-|-------||--------
A|-----------|-----------------------------|-7-5-----3---0-2-|-------||*-0-----
E|---------3~|-----------------------------|-----5-0---3-----|-------||------3~





E|------------|-------------------------------|-----------------------|--------
B|------------|-------------------------------|-----------------------|--------
G|------------|---4---------------------------|-4---------------------|--------
D|------------|---------------------2h3p2-----|-----------------------|--------
A|---0--------|-2---2-0-------2-5-2-------5-2-|---2--0---------0------|------2-
E|-----3b--0--|-----------3-4-----------------|---------3~-------3b-0-|--------


                                   1st time only
                                                                       Solo

E|------------------------------------||--------|------------------------------
B|-----------------------------------*||--------|-----------------------15b17--
G|-4---------------------2-----4------||-7b--4--|------------------------------
D|-----------------2-3-4---3/4---5-6--||--------|------------------------------
A|---2-0-------2-5-------------------*||--------|------------------------------
E|---------3-4------------------------||--------|------------------------------





E|----------------|-----------------------------|----------7-------------------
B|----r-----15----|-12~-14b15--r-b2---10b12-----|------------10-9-8-7----------
G|-------13----13-|-----------------------------|---------------------10-9-8-7-
D|----------------|-----------------------------|------------------------------
A|----------------|-----------------------------|------------------------------
E|----------------|-----------------------------|------------------------------





E|-------------|---------|----------------------------14--|--------19----17----
B|-------------|---------|-15b19---r12----12--14b15-------|-17b19-----17----17-
G|-------------|---------|-------------13-----------------|--------------------
D|-9-8-7-------|---------|--------------------------------|--------------------
A|-------7b9-5-|---------|--------------------------------|--------------------
E|-------------|-7~------|--------------------------------|--------------------





E|-16----14------------------|--------------------------------------------------
B|----17r---17b19--r-15--19--|-15-17--------------------------------------------
G|---------------------------|-------16~-------------16-17-18-19-18-17-16-------
D|---------------------------|--------------16-17-18----------------------18-17-
A|---------------------------|--------------------------------------------------
E|---------------------------|--------------------------------------------------





E|----|-----------------------------------||---------------------------------|-
B|----|-----------------------------------||---------------------------------|-
G|----|-18b19-18b19--16--18b19--r-16~-----||-10b11-7-------------------------|-
D|-16-|-----------------------------------||---------7-----------------------|-
A|----|-----------------------------------||------------------------5-7------|-
E|----|-----------------------------------||-----------10-8~-10-6-7-----3-3--|-





E|----------------------------------------|----------------------------------|-
B|----------------------------------------|----------------------------------|-
G|------------------------9b10-9-7--------|--9b10--7-------------------------|-
D|--------7------7-9-10---------------8h9-|----------7-----------------------|-
A|----7-9---10----------8----------10-----|-------------------------5-7------|-
E|-10----------8--------------------------|------------10-8~-10-6-7-----3-3--|-





E|--------------------------------------7-----------||-------------------------
B|---------------------------------8-10-----10-8b9--||-------------------------
G|------------------------7-9-10----------7---------||-------------------------
D|--------7------7-9-10----------8------------------||-------------------------
A|----7-9---10----------8---------------------------||-----------5---4---2---4-
E|-10----------8------------------------------------||---------------------0---



                                                                   bass solo

E|---|--------------|------------------|------------------------|---------------
B|---|--------------|------------------|------------------------|---------------
G|---|--------------|------------------|------------------------|---------------
D|---|-2------------|-2----------------|-2----------------------|----------3--5-
A|---|-----5-4------|----5--4--2---4---|---5-4------5-----------|-------3--1--3-
E|-0-|-----------0--|------------0---0-|-------2b3----3b4---5-3-|-------1-------





E|--|---------------|----------|--------------------------||-------------------
B|--|--------3------|----------|--------------------------||-------------------
G|--|-3b--5--3------|----------|-3b--5--------0---2-------||-------------------
D|--|-----3---------|----3--5--|-----3----3-----0-----2-0-||-------------------
E|--|------------3~-|-1--------|--------------------1-----||-------------------





E|-------------|---------------------------------------|-----------------------
B|-------------|---------------------------------------|-----------------------
G|-------------|-2-------------------------------------|-----------------------
D|---------3-5-|---------------------------------------|-----------------------
E|-3---1-3-----|-------------1-2-3-----3-4-5-----6-7---|-----------------3---1-





E|-------|--------------------------------------||----------------------------|-
B|-------|--------------------------------------||----------------------------|-
G|-------|-2------------------------------------||----------6b7--r----4---2-6-|-
D|---3-5-|--------------------------------------||----------------------------|-
E|-3-----|------------1-2-3-----3-4-5-----6-7---||---0---0--------------------|-





E|-----------------------------------------|-------------------------------|----
B|-----------------------------------------|-------------------------------|----
G|--------------4--------------------------|-0-----------5---7----9---12---|-14-
D|----------------2--2~----------0-2---4---|---------------5---10---9----0-|----
A|----------------0--0~------2-4---------5-|---3---3~--7-------------------|----
E|-------------------------5---------3-----|-------------------------------|----





E|-------------------------------|-------------------------|-------------------
B|-------------------------------|-------------------------|-------------------
G|-------------------------------|---------6b7~-r--4---2-6-|-4-------------0-2-
D|-0-----------------------------|-------------------------|---2--2~---2-4-----
A|-----------0-3-------3-5-----5-|-7-------------7---7-----|---0--0~-5---------
E|-----1-2-3-----3-4-5-----6-7---|---0--0------------------|-------------------





E|-------|----------------------------------|-----------------------------------
B|-------|----------------------------------|-----------------------12----------
G|---4---|-5----------10----9---------12-14-|--12h14--12h14--14b16-----15-14-12-
D|-----5-|---3--3---7----10------12-9-------|------0------0---------------------
A|-3-----|---3--3-------------10------------|-----------------------------------
E|-------|---1--1---------------------------|-----------------------------------





E|-------------------||-----------------------|------------9---------|---------
B|-------------------||-------------------5-5~|--7b8---7b8---7b8-----|---------
G|-------------------||-----------------------|----------------------|---------
D|-14-13-12----------||-----------------------|----------------------|---------
A|----------14-13-12-||---------5--4--2---4---|----------------------|---------
E|-------------------||-15b16-----------0---0~|----------------------|---------





E|-0-------------------|------------|-10------12------------10----9---|-----------
B|---3-2-0-----0-------|------------|-10b12---10b12--10b12-----10---8-|-------7b8-
G|---------2-3---2b4--r|-b2-r-------|---------------------------------|-----------
D|---------------------|------------|---------------------------------|--9~-------
A|---------------------|------------|---------------------------------|-----------
E|---------------------|------------|---------------------------------|-----------





E|-7------------|--------5b7---r-p3-----|------------||-19b20----r-----17-------
B|---7b8--r-b1-r|-------------------5-5~|------------||-------------17----20b22-
G|--------------|-----------------------|------------||-------------------------
D|--------------|-----------------------|------------||-------------------------
A|--------------|-----------------------|------------||-------------------------
E|--------------|-----------------------|------------||-------------------------





E|--|------------------|-----------19b20----r---22----19b21--17-|---------------
B|--|------------------|---------------------17----17-----------|-20b22---------
G|--|------------------|----------------------------------------|---------------
D|--|------------------|----------------------------------------|---------------
A|--|------------------|----------------------------------------|---------------
E|--|------------------|----------------------------------------|---------------





E|----||----------12-------------------------------|-------------------|--------
B|----||-------12----15----14-------12-------------|-------------------|--------
G|----||-14b16----------14----14b16----15-14-12----|----/2-0-----0-----|-----14~
D|----||----------------------------------------14~|---------2-0-------|--------
A|----||-------------------------------------------|-------------------|--------
E|----||-------------------------------------------|---------------3~--|--------





E|--------|-----------------|-----0----0-----||-
B|--------|-8--7---5--5--5--|-3---0----0-----||-
G|--------|-7--7---6--4--5--|-4---2--0h1-----||-
D|--------|-6--7---7--6--5--|-5---4----2-----||-
A|--------|-7--5---------3--|----------2-----||-
E|--------|--------5--0-----|-3---2----0-----||-








































variations - click chord images
Transpose chords:
Tuning:
Cool service:
View: Size:
A  A  A
Rating:
Layout:
  • Currently 0/5 Stars.
  • 1
  • 2
  • 3
  • 4
  • 5
 
Accuracy:
  • Currently 0/5 Stars.
  • 1
  • 2
  • 3
  • 4
  • 5
 
click stars to rate
Chordie recommends:
Get acoustic guitar lessons and electric guitar lessons at JamPlay.com
Songbook:
Login to add this song to your songbook
Support the artist
Preview/buy this song
MSN Music
Why this non-profit ad?

 
login to add comments/video/corrections