eToCache5 = ""; ?> lake of fire by Nirvana - guitar chords, guitar tabs and lyrics - chordie

lake of fire

Nirvana



Date: Wed, 05 Mar 1997 03:33:50 -0800
From: Fred Jimpson 
Subject: CRD: 'Lake of Fire' by 'Nirvana'


GUITAR CHORDS
Song:  'Lake of Fire'
Performed by: NIRVANA
Album: 'Unplugged'
Original song by: Curt Kirkwood
Tabbed by: Fred Jimpson 


Tuning: Tune down a half step (Eb,Ab,Db,Gb,Bb,Eb)
        Finger the chords in the same spot as in standard tuning

Chords:
     EADGBe
Gm : 355333
F5 : 133xxx
Bb5: x133xx  em again till the Fourth of July

#cutline#
I knew a lady  Came from Duluth
Bit by a dog with a rabid tooth
She went to her grave just a little too soon
Flew and laid down on the yellow moon

#cutline#
People cry  People moan
Look for a dry place to call their home
Try to find some place to rest their bones
While the angels and the devils try to make their own


[Fill]

^ = bend
~ = vibrate
/ = slide up
\ = slide down
h = hammer on
p = pull off

(that little guitar fill goes like this)

e------------------------------------------------------
B-------11----11----11----11----11\----6---6--6/8------
G--3/10----10----10----10----10------5---5---5-/7----0-
D------------------------------------------------------
A------------------------------------------------------
E------------------------------------------------------


*[Solo]*

e|-------3---------3---------------------------|-----------
B|--2/3-----3--6^------6-----------------------|-----------
G|------------------------5--3-----------------|-----------
D|------------------------------5--3-----------|-----------
A|------------------------------------5--4--3--|-----------
E|---------------------------------------------|-6--3--3---

---------------------------------|----------------------------------|
------------------------3^-------|---------6~----6~-----------------|
------------------------3^-------|----3/7------7~--7\5--3^----------|
---------------3--3/5--------5---|-------------------------5--5--3--|
------3--4--5--------------------|---------------------------------5|
---6-----------------------------|----------------------------------|
                                     
----------------------------|-----------------3-------------|
----------------------------|-----6--------/3---3-6---3-----|
----------------------------|-/7-------7\-----------5---3-5-|
----3-----3-----------------|-------------------------------|
--5----5----5-3-------------|-------------------------------|
----------------6-3--3--3---|-------------------------------|

--------------------------|-----------------------------|
------------3^------------|-3^-------3^-----------------|
------------3^------------|-3^-------3^-----------------|
----3----5-------3--------|-----5--------5-3------------|
-------------------5-3/5--|------------------5-4-3------|
--------------------------|------------------------6-3--|

--------------------------|
--------------------------|
--------------------------|
-----------3-3/5----------|
-----3-4-5-------3--------|
-3-6----------------6--3--|








































variations - click chord images
Transpose chords:
Tuning:
Cool service:
View: Size:
A  A  A
Rating:
Layout:
  • Currently 0/5 Stars.
  • 1
  • 2
  • 3
  • 4
  • 5
 
Accuracy:
  • Currently 2.6/5 Stars.
  • 1
  • 2
  • 3
  • 4
  • 5
 
click stars to rate
Chordie recommends:
Learn to play songs at Jamplay.com with video guitar lessons
Songbook:
Login to add this song to your songbook
Support the artist
Preview/buy this song
MSN Music
Why this non-profit ad?

 
login to add comments/video/corrections