Guitar Tabs, Chords and Lyrics
Major upgrade!! After one year development the new version of Chordie is now online! Please give feedback.


School  Nirvana

NIRVANA ========> S C H O O L
---from the album ''bleach''--
Transcribed by D. Cohen (cohend@birisc.cs.biu.ac.il)
[++++++++++++++++++++++++++++++++++++++++++++++++++++]  
The directory has a school.crd already , but i'm sure
this one sounds better , check it out :)
/ = Slide
^^^^ = Vib
Intro/Verse RIFF
 
 1 -------------------------------------------------------
 2 -------------------------------------------------------
 3 -------------------------------------------------------
 4 -------------------------------------------------------
 5 ----------7--------6--------------------------7^^^^----
 6 -0--0--0-----0--0-----0--0--0--0--0--0--0--0----------- 

Wont you...
Or it might go like this:
 
 1 -------------------------------------------------
 2 -------------------------------------------------
 3 -------------------------------------------------
 4 -------------------------------------------------
 5 ----------7--------6--------5-----------7^^^-----
 6 -0--0--0-----0--0-----0--0-----0--0--0----------- 

Chorus:
[C5] [B5] [E5] [A5] [G5] 
 
 1 --------- ------------------------ --------- --------- ---------
 2 --------- ------------------------ --------- --------- ---------
 3 -5--5--5- -4--4--4--4--4--4--4--4- --------- --------- ---------
 4 -5--5--5- -4--4--4--4--4--4--4--4- -2--2--2- -7--7--7- -5--5--5-
 5 -3--3--3- -2--2--2--2--2--2--2--2- -2--2--2- -7--7--7- -5--5--5-
 6 --------- ------------------------ -0--0--0- -5--5--5- -3--3--3- 

No recuss...
[C5] 
 
 1 -----------------------
 2 -----------------------
 Continue=> 3 -/5--5--5--5--5--5--5--
 4 -/5--5--5--5--5--5--5--
 5 -/3--3--3--3--3--3--3--
 6 ----------------------- 

Sorry , no solo :( i cant transcribe it, it'll fuck me up.
when i play it i just blab something on the guitar, sounds the same:)
as long as you have a bass-guitar playing the RIFF with ya.
From: Greg A Diehl
"School"
Written By Kurt Cobain
Tabbed By: ???
TXT By: Greg Diehl (greg@america.com)
Notaion:
^ = Bend
/ = Slide
 
 ------------------------------------- Reapeat this over and over until
 ------------------------------------- you reach the chorus...
 -------------------------------------
 -------------------------------------
 -------------------------------------
 --0-0-0-5^-0-0-5^-0-0-0-0-0-5^------- 

Chorus:
 
 --------------------------------------------2-2-2-2----------------
 --------3-3---------------------------------3-3-3-3----------------
 --3-3-3-3-3--2-2-2-2-2-2-----------------0--2-2-2-2----------------
 --3-3-3-3-3--2-2-2-2-2-2--2-2-2-2-2-2-2--0--0-0-0-0----------------
 --1-1-1-1-1--0-0-0-0-0-0--2-2-2-2-2-2-2--0-------------------------
 --------------------------0-0-0-0-0-0-0---------------------------- 

(Repeat)
Bridge to Solo:
 
 ----------------------------------------------------------------------
 -----------------------------15-15-15/--------------------------------
 -----------------12------12--13-13-13/------------------12-12-12------
 --------11-11----11--11--11--------------------11-11----11-11-11-0----
 --------10-10-X--------------------------------10-10-11---------------
 --0-0-0----------------------------------0-0-0-------------------19/-- 

Solo:
 
 -------------------------------------------------------------------
 --2^--2^--2------2^--2---------------------------------------------
 --2^--2^--2---0--2^--2--0---------------2^-0-2^2-0--------7--------
 --------------------------2-0-2-0-----------------2/7-7-7-7-7/9-11/
 -------------------------------------------------------------------
 ----------------------------------3/--0----------------------------
 -----------------------------------------------------------------------
 -----0------------------------------------------------------------ 2/7-
 --/9---9/7/0--2--2-2-2-2-2-----------0-2-0-0-2^--0---------2-5-2-5-----
 -------------------------------0--0----------------2-5/0-5-------------
 -----------------------------------------------------------------------
 ----------------------------------------------------------------------- 

That's basically it. Sorry I couldn't go into much detail on how to play it,
but this isn't my own tabbing so I didn't have much to work with.
_____________________________________________________________________________
From: Keith17NJ@aol.com
"School" by Nirvana
(standard tuning and everything)
hb = half bend fb = full bend
/ = slide up
for the intro, bang the back of the neck so the strings vibrate and all that.
then play the main riff:
 
 --------------------------------------
 --------------------------------------
 --------------------------------------
 --------------------------------------
 --------------------------------------
 --0--0-0-5hb-0-0-5hb-0-0-0-0-0-5fb--

chorus:
C5 (x355xx) A5 (577xxx) E5 (022xxx) D5 (x577xx)
i'm not sure about the bridge, but it's something like this:
 
 ----------------------------------------
 ----------------------------------------
 ----------------------------------------
 ----------7------7----7---7--7--7--7/--
 --7--7-7----7-7----7-------------------
 ----------------------------------------

that's about it for the tab. i have no idea on the solo. here's the lyrics
(all 15 words):
Won't you believe it is just my luck
No recess
You're in high school again
-keith

Important: The song above is NOT stored on the Chordie server. The original song is hosted at tabfu.thudspace.net. Chordie works as a search engine and provides on-the-fly formatting. Chordie does not index songs against artists'/composers' will. To remove this song please click here.

Text color:
Chord color:
Chord grids: 
Font size:    
Page size: 

A5 B5 C5 E5 G5
Rate #2 of 4 versions

Jango Player

Login - add to songbook

SHARE PAGE  




You need to log in to post comments