Guitar Tabs, Chords and Lyrics


garden   Pearl Jam








Subject: Pearl Jam- Garden.tab
Date: Wed, 6 Dec 1995 18:00:14 -0500 (EST)

Garden
Pearl Jam
Ten

   I didn't see this on the archive yet, so I thought I'd give it a shot.
The bridge is NOT here, but  the main riff and the chorus parts are 
pretty easy.  Feel free to tack on any other parts you've figured out.  
Q's/comments to Chad (pimentec@sas.upenn.edu)

Verse Riff- let strings ring throughout.  Works best finger-style
 
e--2p0-0-------0------0-----|-2p0-0-------0---0-----|-2p0-0-------0-----0----|
b--------0---1---1------1---|-------0---1---1---1---|-------0---1---1-----1--|
g--2-------2-------2------2-|-2-------2-----------2-|-2-------2-------2-----2|

e--2p0-0-------|
b--------0---3-|
g--2-------2-2-|

Chorus (?)- Barre Chords

 Am	 G5	C(5)	 B
e-5-	e--- 	e---	e---	
b-5-	b---	b(5)	b-4-
g-5-	g---	g-5-	g-4-
d-7-	d-5-	d-5-	d-4-
a-7-	a-5-	a-3-	a-2-
E-5-	E-3-	E---	E---

	Am	     G5    C5  	
I will walk with my hands bound
	Am	     G5   C5
I will walk with my face blood
	Am	      G5    C5
I will walk with my (something else)
    C         B		    To Riff 1      
Into your garden, garden of stone

Anybody knows the next part (the "I don't need what you have to give" part)
please tack it on.  

---------------------------------------------------------------------------
"Bye-Bye everybody!" - Dr. Nick Riviera
---------------------------------------------------------------------------









Important: The song above is NOT stored on the Chordie server. The original song is hosted at tabfu.thudspace.net. Chordie works as a search engine and provides on-the-fly formatting. Chordie does not index songs against artists'/composers' will. To remove this song please click here.

This song is displayed as text-only. Transposing and tuning is only available for chordpro-songs.

Login - add to songbook

Rating click stars to rate

Layout
Accuracy

SHARE PAGE  




You need to log in to post comments