porch

Pearl Jam


Date: Wed, 29 Nov 1995 18:02:47 -0600 (CST)
From: Leo Cailleteau 
Subject: Pearl Jam Porch.Tab

Porch 
By Pearl Jam
>From Ten
Tab By Leo P. Cailleteau, III dadson@neosoft.com


Chords
A5(1)     C5     G5     A5(2)     Bb5     C5
--------------------------------------
-2------------------------------------
-2------------------------------------
-------5---------------------3------5-
-------3-------5-----7-------1------3-
---------------3-----5----------------
PORCH
++++++++++++++++++++++++++
Chords A5(1) C5
What the fuck is this world
Running to, you didn't
Leave a message, at least I
Could Have learned your voice one last time
Daily minefield, this could
Be my time, About you?
Would you hit me?
Would You Hit Me?
++++++++++++++++++++++++++
Chords G5 A5(2) Bb5 C5
Home...
++++++++++++++++++++++++++
Chords A5(1) C5
All the bills go by, and
Initiatives are taken up
By the middle, there ain't gonna be any middle any more
And the cross I'm bearing home
Ain't indicative of my place
Left the porch  
Left The Porch
++++++++++++++++++++++++++
Chords G5 A5(2) Bb5 C5
Oh...

Hear my name, take a good look
This could be the day
Hold my hand, walk beside me
I just need to say
++++++++++++++++++++++++++
Solo
I Use The Lead Line Below And Improvise From It
X Means To Strike A Dull String
-----------------------------------------------------
-----------------------------------------------------
-9-X-9-9-9-11-X-11-11-11-12-X-12-12-12-14-X-14-14-14-
-----------------------------------------------------
-----------------------------------------------------
-----------------------------------------------------
Then
-----------------------------------------------------
-----------------------------------------------------
-----------------------------------------------------
-9-X-9-9-9-11-X-11-11-11-12-X-12-12-12-14-X-14-14-14-
-----------------------------------------------------
-----------------------------------------------------
++++++++++++++++++++++++++
Chords G5 A5(2) Bb5 C5
Hear my name, take a good look
This could be the day
Hold my hand, lie beside me
I just need to say
I could not take a just one day
I know when I would not ever touch you
Hold you...feel you...in my arms...never again...
Yeah...

I'd Appreciate Your Comments And Suggestion
dadson@neosoft.com

Best

Leo












































variations - click chord images
Transpose chords:
Tuning:
Cool service:
View: Size:
A  A  A
Rating:
Layout:
  • Currently 0/5 Stars.
  • 1
  • 2
  • 3
  • 4
  • 5
 
Accuracy:
  • Currently 3.3/5 Stars.
  • 1
  • 2
  • 3
  • 4
  • 5
 
click stars to rate
Chordie recommends:
Learn to play songs at Jamplay.com with video guitar lessons
Songbook:
Login to add this song to your songbook
Support the artist
Preview/buy this song
MSN Music
Why this non-profit ad?

 
login to add comments/video/corrections