nicu

Phish



NICU by Phish


tabbed by TDog (tpl@acpub.duke.edu)

Verses:                                                            
  ----------------------------14b(1/2)----------------------
  ----11--11-----9----9/11----------------------------------
  ----12--12-----10--10/12----------------------------------
  ----13--13-----11--11/13----------------------------------
  ----------------------------------------------------------
  ----------------------------------------------------------
 
Riff:                                                            
  --------------9--9--9--9--8-------------8-----------------
  -------8--11-----------------11--9--11-----11--8h11--9----
  ----8-----------------------------------------------------
  ----------------------------------------------------------
  ----------------------------------------------------------
  ----------------------------------------------------------
                                                            
                                                            
------------------------------------------------------------
8------8--11--9--8h9---------8------------------------------
---11-----------------10--8--------------------------10-----
--------------------------------------------7/8--11---------
------------------------------------------------------------
------------------------------------------------------------
                                                            

                                                            
------------------------------------------------------------
9--8-------------8------------------------------------------
------10--8--10---------------------------10--10--10--10----
--------------------11--8--------7/8--11--------------------
------------------------------------------------------------
------------------------------------------------------------
                                                            

                  Chorus:                                          
-----------------   ----------------------------------------
----8------------   ------13--------14--------13------------
10-----10--8-----   ------13--------13--------13------------
-----------------   ------13--------15--------13------------
-----------------   ----------------------------------------
-----------------   ----------------------------------------
                                                            

                                                            
------------------------------------------------------------
11--------13------------------------------------------------
12--------13------------------------------------------------
13--------13------------------------------------------------
------------------------------------------------------------
------------------------------------------------------------
                                                            








































variations - click chord images
Transpose chords:
Tuning:
Cool service:
View: Size:
A  A  A
Rating:
Layout:
  • Currently 0/5 Stars.
  • 1
  • 2
  • 3
  • 4
  • 5
 
Accuracy:
  • Currently 3/5 Stars.
  • 1
  • 2
  • 3
  • 4
  • 5
 
click stars to rate
Chordie recommends:
Check out these online guitar lessons
Songbook:
Login to add this song to your songbook
Support the artist
Preview/buy this song
MSN Music
Why this non-profit ad?

 
login to add comments/video/corrections