purple rain

Prince



 C
C major 

|---|---|---|---|---
|-1-|---|---|---|---
|---|---|---|---|---
|---|-2-|---|---|---
|---|---|-3-|---|---
|---|---|---|---|---

 Am7
A minor 7 

|---|---|---|---|---
|-1-|---|---|---|---
|---|---|---|---|---
|---|-2-|---|---|---
|---|---|---|---|---
|---|---|---|---|---

 G
G major 

|---|---|-4-|---|---
|---|---|---|---|---
|---|---|---|---|---
|---|---|---|---|---
|---|-1-|---|---|---
|---|---|-2-|---|---

 F
F major 

|-1-|---|---|---|---          |-1-|---|---|---|---
|-1-|---|---|---|---          |-1-|---|---|---|---
|-1-|-2-|---|---|---    or    |---|-2-|---|---|---
|-1-|---|-4-|---|---          |---|---|-4-|---|---
|-1-|---|-3-|---|---          |---|---|-3-|---|---
|-1-|---|---|---|---          |---|---|---|---|--- x

 F4
F major 4 

|-1-|---|---|---|---          |-1-|---|---|---|---
|-1-|---|---|---|---          |-1-|---|---|---|---
|-1-|---|-4-|---|---    or    |---|---|-4-|---|---
|-1-|---|-3-|---|---          |---|---|-3-|---|---
|-1-|---|---|---|--- x        |---|---|---|---|--- x
|-1-|---|---|---|---          |---|---|---|---|--- x

Intro: C, C, Am7, Am7, G, G, F, F

Lyrics:

 CAm7
1.  I never meant to cause you any  sorrow.
 GFF4
    I never meant to cause you any  pain. 
 CAm7
    I only want one time see you  laughing.
 G
   I  only want to see you laughing
 C
   in the purple  rain.

 FF4
R. Purple rain, purple  rain. 
 FC
    Purple rain, purple  rain.
 Am7G
    Purple rain, purple  rain.
   I only want to see you baby
 C
   In the purple  rain.

 CAm7
2. I never wanted to be your weekend  lover. 
 GFF4
    I only wanted to be some kind of friend, hey. 
 CAm7
    Baby I could never steal you from another.
 GC
    Such a shame our friendship has to  end.

 FF4
R. Purple rain, purple  rain. 
 FC
    Purple rain, purple  rain.
 Am7G
    Purple rain, purple  rain.
   I only want to see you underneath
 C
   In the purple  rain.

 CAm7
3. Honey I know, I know, I know times are  changin'. 
 GF
    It's time we all reach out for something  new.
 F4
   That means you too. 
 C
    You say you want a leader,
 Am7
    But you can't seem to make up your mind.
 G
   I think you better close  it.
 C
   And let me guide you to the purple  rain.

 FF4
R. Purple rain, purple  rain. 
 FC
    Purple rain, purple  rain.
   (Whew! If you know what I'm singin' about,
 Am7
   Help me and  come on raise your hand.)
 Am7G
    Purple rain, purple  rain.
   I only want to see you, I only want to see you
 C
   In the purple  rain.



A simple playing technique:

 C                 Am7               G
|-------0|-----0--|-------0|-----0--|-------3|-----3--|
|1---1--1|1-1--11-|1---1--1|1-1--11-|-------0|-----0--|
|0---0---|0-0---0-|0---0---|0-0---0-|0---0---|0-0---0-|
|2---2---|2-2---2-|2---2---|2-2---2-|0---0---|0-0---0-|
|3---3---|3-3---3-|0---0---|0-0---0-|2---2---|2-2---2-|
|--------|--------|--------|--------|3---3---|3-3---3-|

 F              F4 G                          C
|-------1|------0-|---3----|---3----|---3----|--------|--------|
|1---1--1|1-1---11|---0----|---0----|---0----|1-------|--------|
|2---2---|2-2----3|0---0---|0---0---|0---0---|0-------|--------|
|3---3---|3-3----3|0---0---|0---0---|0---0---|2-------|--------|
|3---3---|3-3-----|2---2-2-|2---2-2-|2---2-2-|3-------|--------|
|--------|--------|3---3-3-|3---3-3-|3---3-3-|--------|--------|
                                              |_______________|


A picking pattern

 C        Am7      G        F        F4
|-----0--|-----0--|-----3--|-----1--|-----1--|
|----1-1-|----1-1-|----0-0-|----1-1-|----1-1-|
|---0---0|---0---0|---0---0|---2---2|---3---3|
|--2-----|--2-----|--0-----|--3-----|--3-----|
|3-------|0-------|--------|--------|--------|
|--------|--------|3-------|1-------|1-------|


The original technique used by PRINCE:

You need the following additional chords:

 C9
C major 9 

|---|---|---|---|---
|-1-|---|---|---|---
|---|---|---|---|---
|---|---|---|---|---
|---|---|-3-|---|---
|---|---|---|---|---

 Am74
A minor 7/4 

|---|---|---|---|---
|-1-|---|---|---|---
|---|---|---|---|---
|---|---|---|---|---
|---|---|---|---|---
|---|---|---|---|---

 F9
F major 9 

|-1-|---|---|---|---
|-1-|---|---|---|---
|-1-|---|---|---|---
|-1-|---|-4-|---|---
|-1-|---|-3-|---|---
|-1-|---|---|---|---



 C9                Am74 Am7     Am74 G
|--------|--------|-------0|-----0--|-------3|-----3--|
|1-------|--------|1---1--1|1-1--11-|-------0|-----0--|
|0-------|--------|0---0---|0-0---0-|0---0---|0-0---0-|
|0-------|--------|02--2---|2-2---0-|0---0---|0-0---0-|
|3-------|--------|0---0---|0-0---0-|2---2---|2-2---2-|
|--------|--------|--------|--------|03--3---|3-3---3-|
 |_______________|

 F9       F  F4 F  G                          C
|-------1|---1-1--|-------3|-------3|-------3|--------|
|1------1|1--1111-|-------0|-------0|-------0|1-------|
|0-------|02--2-2-|0---0-0-|0---0-0-|0---0-0-|0-------|
|3-------|3---3-3-|0---0-0-|0---0-0-|0---0-0-|2-------|
|3-------|3---3-3-|2-2-2---|2-2-2---|2-2-2---|3-------|
|--------|--------|3-3-3---|3-3-3---|3-3-3---|--------|


Refrain:

 C        F        F4       F        F        C9
|--------|-------1|-----1--|--------|--------|-------0|-----0--|
|1-------|1---1--1|1-1--11-|1---1---|1---1---|1---1--1|1-1--11-|
|0-------|2---2---|3-3---3-|2---2---|2---2---|0---0---|0-0---0-|
|2-------|3---3---|3-3---3-|3---3---|3---3---|0---0---|0-0---0-|
|3-------|3---3---|--------|3---3---|3---3---|3---3---|3-3---3-|
|--------|--------|--------|--------|--------|--------|--------|

 Am7                G                           C
|-------0|-----0--||-------3|-----3--||--------|--------|--------|
|1---1--1|1-1--11-||-------0|-----0--||--------|1-------|--------|
|0---0---|0-0---0-||0---0---|0-0---0-||0---0---|0-------|--------|
|2---2---|2-2---2-||0---0---|0-0---0-||0---0---|2-------|--------|
|0---0---|0-0---0-||2---2---|2-2---2-||2---2---|3-------|--------|
|--------|--------||3---3---|3-3---3-||3---3---|--------|--------|
                                                |_______________|

Hint: Prince plays this in B major. If you want to play it together
      with the LP, you should tune your guitar down one step.

Taken from "Rock Ballads" by Peter Bursch.
Reprinted without permission.


Back to index / p / prin


Corrected by goldshoe496. View original
Am7 C C9 F F4 F9 G
variations - click chord images
Transpose chords:
Tuning:
Cool service:
View: Size:
A  A  A
Rating:
Layout:
  • Currently 1/5 Stars.
  • 1
  • 2
  • 3
  • 4
  • 5
 
Accuracy:
  • Currently 3/5 Stars.
  • 1
  • 2
  • 3
  • 4
  • 5
 
click stars to rate
Chordie recommends:
Learn to play songs at Jamplay.com with video guitar lessons
Songbook:
Login to add this song to your songbook
Support the artist
Preview/buy this song
MSN Music
Why this non-profit ad?

 
login to add comments/video/corrections