Chordie logo


whiskey train   Procol Harum


	--------------------------------------------


	--------------------------------------------


	-(0h2)-5-5-2p0---0-2-2------2---2-0-2-------


	--------------------------------------------


	---------------3----------0---3-------------


	--------------------------------------------


	----------------------------------------


	----------------------------------------


	-----2---2-0-2---2-----2-----2----------


	-------------------5--------------------


	--3----------------------3--------------


	----------------------------------------




        Ain't gonna ride that whiskey train     [main riff]





                                                                                                                                                                                                                    


	----------------------------------------
	----------------------------------------
	-5b7---5-2---2-0-------2-----2----------
	-----------------2-5--------------------
	-------------------------3--------------
	----------------------------------------




                           ^     ^  bend slightly


        A


        Ain't gonna burn up no more flame       [main riff]





                                                                                                                                                                                                                    


	---------------------
	-3----3--------------
	-2----2-----------2--
	-0----0---0-3-0------
	----------------3----
	---------------------


Important: The song above is NOT stored on the Chordie server. The original song is hosted at tabfu.thudspace.net. Chordie works as a search engine and provides on-the-fly formatting. Chordie does not index songs against artists/composers will. To remove this song please click here.

This song is displayed as text-only. Transposing and tuning is only available for chordpro-songs.

Login - add to songbook

Rating click stars to rate

Layout
Accuracy

SHARE PAGE  




You need to log in to post comments