"yes"; ?> snap your fingers by Prong - guitar chords, guitar tabs and lyrics - chordie

snap your fingers

Prong



I've just tabbed out the rhythm figures, which are easy enough to figure 
out where to put 'em. I didn't transcribe this; Ask me no questions and 
I'll tell you no lies : )



     Snap Your Fingers, Snap Your Neck
        By   Prong
                        From the Album   Cleansing        

Dropped D tuning down one whole step
6=C  5=G  4=C  3=F  2=A  1=D

Intro

PM.......                                                          sl. 
|-------------------------------------------------------------------------|
|-------------------------------------------------------------------------|
|-------------------------------0---------(0)--------------0---(0)--------|
|-------------------------------0---------(0)--------------0---(0)--------|
|--4----3--0-------(0)----------4---------(4)---------0-0--4---(4)--------|
|--4----3--0-------(0)--------------------------------0-0---------5//16\\-|

Rhy. Fill 1                        Intro Out

PM..... H ..............                                         pick slides
|-----------------------|          |-------------------------------------|
|-----------------------|          |-------------------------------------|
|-----------------------|          |-------------------------------------|
|-----0----0------------|          |-------------------------------------|
|--1--0^3--0-----1----1-|          |-4-----3---0--------(0)--------X\X//-|
|--1--0----0-----1----1-|          |-4-----3---0--------(0)--------X\----|


Rhy. Fill 2                        Riff A

  sl       PM....h.....            PM......................... semi-harm.
|------------------------|        |---------------------------------------|
|------------------------|        |---------------------------------------|
|------------------------|        |---------------------------------------|
|---------------0---0----|        |---------------------------------------|
|----------1----0^3-0----|        |----------------------------5----------|
|--15\\----1----0---0----|        |---0--6-0-5-5--0-6--0-5---0------------|


Rhy. Fig. 2

                sl                                 sl
|---------------------------------------------------------|
|---------------------------------------------------------|
|------5--5--5--/0--0--0--0--7--7--7--7--7--7--7--7\\\5---|
|----------------6--6--6--6-------------------------------|
|------3--3--3--/6--6--6--6--5--5--5--5--5--5--5--5\\\3---|
|---------------------------------------------------------|


Rhy. Fill 3                            Riff B
                       PM........     PM.h.............................  
|--------------------------------|    |--------------------------------|
|--------------------------------|    |--------------------------------|
|---7--7--7--7--7----------------|    |--------------------------------|
|--------------------------------|    |--------------------------------|
|---5--5--5--5--5----15-15-15\\\-|    |3^5-5-5-5-5-5-5-5-5-5-5-5-5-5-5-|     
|--------------------------------|    |--------------------------------|


Riff C                                    Rhy Fill 4
PM..h.......h.......h.......h......        PM.................sl...sl. 
|-----------------------------------|     |--------------------------|
|-----------------------------------|     |--------------------------|
|-----------------------------------|     |--7--7--7--7--7-----------|
|-----------------------------------|     |--------------------------|
|--3^5-5-5-3^5-5-5-3^5-5-5-3^5-5-5--|     |--5--5--5--5--5---5//15\\-|
|-----------------------------------|     |--------------------------|


Rhy. Fig. 3
         sl
|-------------------------------------------------------------|
|-------------------------------------------------------------|
|-9--9--9//12--12--12--12--11--11--11--11--11--11--11--11--9--|
|-------------------------------------------------------------|
|-7--7--7//10--10--10--10--9---9---9---9---9---9---9---9---7--|
|-------------------------------------------------------------|


Rhy. Fill 5

|--------------------|
|--------------------|
|-11-11-11-11-11-11--|
|--------------------|
|-9--9--9--9--9--9---|
|--------------------|

Nothing breeds more contempt 
for this world than the mem'ries now formed.
Ev'ry moment, a new seed is grown.
To no reason the trouble unfolds      

For the trials of today, I'm no jury.
Really don't care how ya feel.
The pleasant notion of miraculous change
drifts into multiple jeers.

Jeers.
Jeers.

You want the good life,
You break your back.
You snap your fingers,
You snap your neck.

Seconds drip through my hands,
washed of moments born.
All the spaces between bleed,
A tribute to a sacrament never exposed.
A message to the forces.
I've no pity, don't know how thankful to feel.
Expectations of my daily bread,
gives me the hunger to steal

You want the good life,
you break your back.
You snap your fingers,
you snap your neck.

You want the good life,
you break your back
You snap your fingers,
You snap your neck.  Ah!!

You want the good life,
you break your back.
You snap you fingers,
you snap your neck.
You want the good life,
you break your back.
You snap your fingers,
you snap your neck.

Snap your fingers, snap your neck.
Snap your fingers, snap your neck.









































variations - click chord images
Transpose chords:
Tuning:
Cool service:
View: Size:
A  A  A
Rating:
Layout:
  • Currently 0/5 Stars.
  • 1
  • 2
  • 3
  • 4
  • 5
 
Accuracy:
  • Currently 1/5 Stars.
  • 1
  • 2
  • 3
  • 4
  • 5
 
click stars to rate
Chordie recommends:
Learn to play guitar with video-based, online guitar lessons at JamPlay.com
Songbook:
Login to add this song to your songbook
Support the artist
Preview/buy this song
MSN Music
Why this non-profit ad?

 
login to add comments/video/corrections