Chordie logo


love me   Collin Raye








			"Love, Me" by Collin Raye

	   transcribed by Evan Lavidor  


Chords:
	C   X32010	amin7/G 302010 (abbrev. to am/G)
	G/B X2003X	F   133211
	am  X02210	G   355433 or 320033 depending 
	dm  XX0231	em  022000   

The Intro is:

  C           G/B        am          am/G          N.C.

e-0--------------------|-------------------------|-1--0--------------------|
B----3--1--3-----------|-1--0--1--1--------------|-3--1--3--1--0-----1--1--|
G-----------------0----|-------------------0-----|-------4--2--0-----0--0--|
D---------------0---0--|----------------2-----2--|----------------0--------|
A-0-----------2--------|-0-----------------------|-------------------------|
E----------------------|-------------3-----------|-------------------------|

  C
   
e-------1--0--|
B-------1--1--|
G----0--------|     ll be loving you.  Love, me.

C  G/B  | Am  Am/G  | Dm  G  | C F/C C ||









Important: The song above is NOT stored on the Chordie server. The original song is hosted at tabfu.thudspace.net. Chordie works as a search engine and provides on-the-fly formatting. Chordie does not index songs against artists/composers will. To remove this song please click here.

This song is displayed as text-only. Transposing and tuning is only available for chordpro-songs.

Login - add to songbook

Rating click stars to rate

Layout
Accuracy

SHARE PAGE  




You need to log in to post comments