Guitar Tabs, Chords and Lyrics
Major upgrade!! After one year development the new version of Chordie is now online! Please give feedback.


Place Your Hands  Reef

Date: Sat, 07 Dec 1996 21:16:49 -0500
From: Jocke Larsson
Subject: TAB: 'Place Your Hands' by 'Reef'
Reef - Place Your Hands
A really great song. To catch the feel of it,
the strumming rhythm is important. Listen to the
recording to get it right.
Intro:
D Em7 D Em7 etc.
(Do a bit of hammer-on when changing to the Em7 chord.)
Verse:
[D]Oh, plac[Em7]e your ha[D]nds on[Em7] my h[D]ope,[Em7] [D] [Em7]
Run your [G]fin[Em7]gers through my s[D]oul, [Em7]alrig[D]ht [Em7]
Oh, and the w[G]ay that I feel right n[Em7]ow, oh Lord it may [D]go [Em7]
So place your hands on my hope
Run your fingers through my soul, alright
Oh, and the way that we feel right now, oh Lord it may go
[D]Put Your H[Em7]ands On
Put Your Hands On
Put Your Hands On
Put Your Hands On etc.
Then comes the bridge, during which the bass and the
lead guitar plays the following riff 4 times, starting
at the Bm in the progression.
 
 -----------------------
 -----------------------
 -----------------------
 ---------2-------------
 --2-2-5----5-----------
 -------------3--------- 

[G]You know you cannot h[Bm]ide[D] [G]
[G]>From what's in[Bm]sid[D]e [G]
[G]You know you cannot h[Bm]ide[D] [G]
[G]>From what's in[Bm]sid[D]e [G]
[G]So I ask of you to help me through
I ask of you this thing to do
Put Your Hands On... etc.
3rd verse (same chords as in the first) :
So lay me down for a while
Join my body, with my mind
And I cried at the 'Common One' for weeks aft' he died
Put Your Hands On... etc.
Interlude (drums only)
Put Your Hands On... etc.
Chord Formations:
[Bm] [2] [2] [4] [4] [3] [2]  
[D]Em7 [5]7 [5]7 [7]9 [7]7 [7]8 [5]7
[G] [3] [5] [5] [4] [3] [3]  
Send comments, corrections, or e-bombs to:
jocke.larsson@mailbox.swipnet.se
Good luck,
Jocke
_/_/_/_/_/_/_/_/_/_/_/_/_/_/_/_/_/_/_/_/_/_/_/_/_/_/_/_/_/_/_/_/_/_/_/
Joakim Larsson
Sylvestergatan 6 "42"
411 32 Gothenburg
Sweden
Tel: +46-(0)31-201660
E-mail: jocke.larsson@mailbox.swipnet.se
_/_/_/_/_/_/_/_/_/_/_/_/_/_/_/_/_/_/_/_/_/_/_/_/_/_/_/_/_/_/_/_/_/_/_/
From freebeer@hotmail.com Thu Dec 19 08:43:46 1996
Date: 17 Dec 1996 13:10:52 -0000
From: Chris Stevenson
To: guitar@olga.net
Subject: Reef (Place your Hands)
--====================987654321_0==_
Content-Type: text/plain; charset="us-ascii"
Reef's Place Your Hands.
 
 ------------------------------------------------------------

Freebeer@hotmail.com
~~~~~ ~~~~~
~~~ _ ~~~ _
___ _ ___ _
 
 ---------------------------------------------------------

Get Your *Web-Based* Free Email at http://www.hotmail.com
 
 ---------------------------------------------------------

--====================987654321_0==_
Content-Type: text/plain; name="PLACEY_1.txt"
Content-Disposition: attachment; filename="PLACEY_1.txt"
Place Your Hands (by REEF)
* N.B.Tune Low E on your Geetar to D
Place your hands................
riff 1 Up
 
 ------x-x--x-----x--x-7----7---
 ------7-7--x-----x--x-7h8--7h8-
 ------7-7--x-----x--x-7----7---
 ------7-7--x-----x--x-7h9--7h9-
 ------5-5--x-----x--x-x----x---
 ---0--0----x-----x--x-x----x---

Run your fingers through my soul............
riff 2
 
 ----7---7---7--7-----7---------------
 ----8---8---8--8-----8------7h8------
 ----7---7---7--7-----7------7--------
 ----9---9---9--9-----9---7h9-----9---
 ----10--10--10-10--7h10--------------
 --0-----0---x--x-------------------0-

And the way that we feel right now oh lord we must.............
riff 3
 
 ----0------------0------
 ----0------------0------
 ----0------------0------
 -2--2------2/5---5------
 -2--2------2/5---5------
 -2--2------2/5---5-----0

You know you cannot hide from whats inside......
riff 4
 
 --0--0------------------------------0-0-
 --0--0------------------------------0-0-
 --4--4------------------------------0-0-
 --4--4------------------------------5-5-
 --2--2------------------------------5-5-
 --0--0------------------------------5-5-

I ask of you to see me through..........
riff 5
 
 ---0--x-------------
 ---0--x-------------
 ---0--x-------------
 ---5--x-------------
 ---5--5h7--5h7------
 ---5--5----5-----5\0

transcribed by Chris Stevenson
P.S. Anybody thats into cool music can Email me at (freebeer@hotmail.com)

Important: The song above is NOT stored on the Chordie server. The original song is hosted at tabfu.thudspace.net. Chordie works as a search engine and provides on-the-fly formatting. Chordie does not index songs against artists'/composers' will. To remove this song please click here.

Text color:
Chord color:
Chord grids: 
Font size:    
Page size: 

Bm D Em7 G
Rate #1 of 6 versions

Login - add to songbook

SHARE PAGE  




You need to log in to post comments