Guitar Tabs, Chords and Lyrics
Major upgrade!! After one year development the new version of Chordie is now online! Please give feedback.


Jacobâ??s Ladder   Rush

 
 --------------8---- ---------4------- ---------1----- ---------3------
 -----------------8- -----------4----- -----------1--- -----------3----
 ---9-------9------- -------5-----5--- -------2-----2- -------4-----4--
 10------10---10---- -----6---------6- -----3--------- -----5---------5
 -----10---------10- ---6------------- ---3----------- ---5------------
 ------------------- -4--------------- -1------------- -3--------------
 ---------4----- ---------0----- -----------8----- ---------4----- ---
 -----------4--- -----------0--- -------------8--- -----------4--- ---
 -------5-----5- -------1-----1- ---------9-----9- -------5-----5- ---
 -----6--------- -----2--------- ------10--------- -----6--------- ---
 ---6----------- ---2----------- ---10------------ ---6----------- ---
 -4------------- -0------------- -8--------------- -4------------- ---
 --------------- ---------3------- ---------4----- ---------0----- ---
 ---------0----- -----------3----- -----------4--- -----------0--- ---
 -------2---2--- -------4-----4--- -------5-----5- -------1-----1- ---
 -----3-------3- -----5---------5- -----6--------- -----2--------- ---
 ---3----------- ---5------------- ---6----------- ---2----------- ---
 -1------------- -3--------------- -4------------- -0------------- ---
 ---------------------------------------- ---------------------------
 ---------------------------------------- ---------------------------
 ---------------------------------------- ---------------------------
 ---------------------------------------- ---------------------------
 -3-3-3-3----3-3-3----3-3-3-3----3-3-3-3- ---------------------------
 ---------------------------------------- ---------------------------

 


 (repeat 6 times)


 


 Lyrics start here, during repetitions. ("The clouds...")


 


 

 
 ----1-3-4- -----0-----0-----0-----0- -----------------------------------
 ----1-3-4- -----0-----0-----0-----0- -----------------------------------
 ----2-4-5- -4-4-4-5-5-5-----3-----4- -----------------------------------
 ----3-5-6- -4-4-4-5-5-5-4-4-4-5-5-5- -----------------------------------
 -3--3-5-6- -2-2-4-3-3-3-4-4-4-5-5-5- -----------------------------------
 ----1-3-4- -------------2-2-4-3-3-3- -----------------------------------
 -2-2-3-2-2-3-3- ----------------------------------------- -----------
 -2-2-3-2-2-3-3- ---------5->-(7)-5---5->-(7)-5---5->-(7)- -----------
 -4-4-5-3-3-4-4- -------7-----------7-----------7--------- -----------
 -4-4-5-4-4-5-5- -----7----------------------------------- -----------
 -2-2-3-4-4-5-5- ---5------------------------------------- -----------
 -------2-2-3-3- -7--------------------------------------- -----------
 ->--9-7-6--9->-10--9-7--9-10->-12-->-(down)- ------------------------
 -------------------------------------------- ------------------------
 ->-11-9-8-11->-12-11-9-11-12->-14-->-(down)- ------------------------
 -------------------------------------------- ------------------------
 -------------------------------------------- ------------------------
 -------------------------------------------- ------------------------
 ------------------------------------16->-(17)------------------------
 18->-(19)-!--18->-(19)--18->-(19)-!-----------17->-(19)-(19)->-17-15-
 ---------------------------------------------------------------------
 ---------------------------------------------------------------------
 ---------------------------------------------------------------------
 ---------------------------------------------------------------------
 17->-(19)--------------------------------------- --------------------
 ----------17->-(18)--(19)->-17-15--14->-(16)---- --------------------
 ---------------------------------------------16- --------------------
 ------------------------------------------------ --------------------
 ------------------------------------------------ --------------------
 ------------------------------------------------ --------------------
 ---------_--_--_--_--_-------_--_--_--_-------------- ---------------
 18-19--18-19-18-15-18-15->-14-15-14-15-14--18->-(19)- ---------------
 ----------------------------------------------------- ---------------
 ----------------------------------------------------- ---------------
 ----------------------------------------------------- ---------------
 ----------------------------------------------------- ---------------
 ------------------------------------------------ --------------------
 ---------10-10-10------------------------------- --------------------
 9->-(11)----------(11)->-9-7-9->-(11)-------6-!- --------------------
 --------------------------------------7->-9----- --------------------
 ------------------------------------------------ --------------------
 ------------------------------------------------ --------------------
 -----0-----0- ------------------- ------------------- --- -----------
 -----0-----0- ------------------- -2-2-2-2-(2)-3-3-0- --- -----------
 -4-4-4-5-5-5- -3-3-3-3--(3)--4-1- -4-4-4-4-(4)-5-5-2- -4- -----------
 -4-4-4-5-5-5- -4-4-4-4--(4)--5-2- -4-4-4-4-(4)-5-5-2- -5- -----------
 -2-2-2-3-3-3- -4-4-4-4--(4)--5-2- -2-2-2-2-(2)-3-3-0- -5- -----------
 ------------- -2-2-2-2--(2)--3-0- ------------------- -3- -----------
 ----------------- ----------- ---------------------------------------
 ----------------- ----------- ---------------------------------------
 7-7-7-7---7-7-7-- -7-7-7-7-7- ---------------------------------------
 7-7-7-7---7-7-7-- -7-7-7-7-7- ---------------------------------------
 5-5-5-5---5-5-5-- -5-5-5-5-5- ---------------------------------------
 ----------------- ----------- ---------------------------------------
 ------------- --------------------------- ---------------------------
 ------------- --------------------------- ---------------------------
 -----4-----7- -------4-----7-----4-----7- ---------------------------
 ---7---5-4--- -7---7---5-4-----7---5-4--- ---------------------------
 -5----------- ---5-----------5----------- ---------------------------
 ------------- --------------------------- ---------------------------
 ---------------------------------------------------------------------
 ---------------------------------------------------------------------
 -----4-----7-----4-----7-------4-----7-----4-----7-------------------
 ---7---5-4-----7---5-4---7---7---5-4-----7---5-4-------1-----4-----1-
 -5-----------5-------------5-----------5-------------4---2-1-----4---
 ---------------------------------------------------2-----------2-----
 ------------------------------------- -------------------------------
 ------------------------------------- -------------------------------
 ------------------------------------- -------------------------------
 -----4-------1-----4-------1-----4--- -------------------------------
 -2-1---4---4---2-1-------4---2-1---4- -------------------------------
 ---------2-------------2------------- -------------------------------
 ---------------------------------------------------------------------
 ---------------------------------------------------------------------
 ----4-----7-9---6-----7---------------------------------4-----7-9---6
 --7---5-4-----9---7-6---------1-----4-----1-----4-----7---5-4-----9--
 5---------------------------4---2-1-----4---2-1---4-5----------------
 --------------------------2-----------2------------------------------
 ------ --------------------------------------------------------------
 ------ --------------------------------------------------------------
 ----9- --------------------------------------------------------------
 7-6--- --------------------------------------------------------------
 ------ --------------------------------------------------------------
 ------ --------------------------------------------------------------
 ---------------------------------------------------------------------
 ---------------------------------------------------------------------
 ---------------------------------------------------------------------
 4-4-4-4-4---4-4-4-4---4-4-4-4---4-4-4---4-4-4---4-4-4---4-4-4--------
 4-4-4-4-4---4-4-4-4---4-4-4-4---4-4-4---4-4-4---4-4-4---4-4-4--------
 2-2-2-2-2---2-2-2-2---2-2-2-2---2-2-2---2-2-2---2-2-2---2-2-2--------
 ----- ----- ----- -----

 


 [3] [3] [3] [3] 


 


 

 
 -------------------- ------- -0-2-------------9--10--5- ---------------
 -------------------- ------- -0-2------------10--10--5- ---------------
 -------------------- ------- -2-4-------------9--11--6- ---------------
 4-4-4---4-4---4-4-4- -4-4-4- -2-4-4-2--------11--12--7- ---------------
 4-4-4---4-4---4-4-4- -4-4-4- -0-2-4-2-4-2-0--12--12--7- ---------------
 2-2-2---2-2---2-2-2- -2-2-2- -----2-0---------9--10--5- ---------------


Important: The song above is NOT stored on the Chordie server. The original song is hosted at tabfu.thudspace.net. Chordie works as a search engine and provides on-the-fly formatting. Chordie does not index songs against artists'/composers' will. To remove this song please click here.

This song is displayed as text-only. Transposing and tuning is only available for chordpro-songs.
Rate #0 of 1 versions

Login - add to songbook

SHARE PAGE  




You need to log in to post comments