always with me always with you

Joe Satriani







Here is the TAB to 'Always with me, Always with you' by Joe Satriani.
This is my all time favorite instrumental to listen to and play, and it
has taken a long time to get everything exactly like the album,
including a lot of time with a half speed deck. I am not sure about the
rhythm (which I only notated part of) I think one of the guitars is
strung 'nashville style' but I'm not sure....

Also, there are places where Joe uses the bar that I just am not good
enough to do in tune so I notated them as slides. There are a lot of
little things in this song that are not notated, subtle slides and ghost
hammer-ons, etc. But the most important thing is to use distortion and
compression and really make the notes sing. Especially on the main
theme.

And some of the slides are just slides up to the note, so don't be confused if
you only hear the second note on some of them...

Hope someone can use this!  Here is some explantion of the notation. I
tried to keep it as simple as possible.

h  =  hammer on         a.h = Artificial Harmonic
p  =  pull off          s.h = Semi Harmonic
/  =  slide up          w/bar = use tremolo bar
\  = slide down         t  =  right hand tap on
^  = bend with size of bend notated above


MAIN RHYTHM AND INTRO
-----------

          Repeat 3 times
------------------------------------------------
------5----------5-----------4-----------2------
----8---8------8---8-------6---6-------4---4----
--9------9---9-------9---6-------6---4-------4--
------------------------------------------------
-7---------7-----------0-----------2------------

----------------------------------------------------------------------
-------2-----------4-----------2-----------2--------------------------
-----4---4-------6---6-------4---4-------3---3------------------------
---4-------4---6-------6---4-------4---4-------4----------------------
----------------------------------------------------------------------
-4-----------0-----------2-----------2--------------------------------

END MAIN RHYTHM

----------------------------------------------------------------------
--4---5--5/7~~~~~-7/9---7---5--4-----5--------------------------------
----------------------------------------4/6~~~~~-----\4---6--/8--/9---
----------------------------------------------------------------------
----------------------------------------------------------------------
----------------------------------------------------------------------

----------------------------------------------------------------------
---------------------------------------------------------------4--5--7
-8---6------------------------4~~~----------/6~~---/8\6~~~---4--------
--------4~~~~~~----4--4--------------4--4-----------------------------
----------------------------------------------------------------------
----------------------------------------------------------------------

    p        p   
------------------------------------------7--7--------9---9----9--11--
7/9--7\5\4~~~~2-------------4--5--5/7--/9------/11~~~---12--12--------
----------------/4~~~~~-----------------------------------------------
----------------------------------------------------------------------
----------------------------------------------------------------------
----------------------------------------------------------------------

              full         1/2 p        1/2 1/2     1/4   full
-/14--11-------------------18^--16------18^-^------16^---19^----19----
----------14--14^--14~~~------------19----------19--------------------
----------------------------------------------------------------------
----------------------------------------------------------------------
----------------------------------------------------------------------
----------------------------------------------------------------------


 full   w/bar          p    p  p                 p                 full
--------------------16----15-14-13\12\11---14--12-11-----------19-----
-17^---17~~~----x\0----------------------------------14~~~-/----------
------------------------------------------------------------------18^-
----------------------------------------------------------------------
----------------------------------------------------------------------
----------------------------------------------------------------------

 s.h         full                 1/2      1/2 p           p
-18----16------------------------21^~~~\--14^---12----12----------/17-
-------------19^----19~~~~~~-----------------------15----15-14-12-----
----16----16----------------------------------------------------------
----------------------------------------------------------------------
----------------------------------------------------------------------
----------------------------------------------------------------------

         1/2 1/2 p         p p   p   h h p p   h p p      p  p h h
-14~~~~\--9^-^----7----7----------------------------------------------
--------------------10---10-8-7---------------------------------------
--------------------------------9-7\6-7-9-7-6\4-7-6-4---4-----------4-
------------------------------------------------------7---7-5-4-5-7---
----------------------------------------------------------------------
----------------------------------------------------------------------

  p p   p              1/2         h    h  h    h  h    h  h  h
----------------------21^-~~~~----------------------------------------
------------------------------------------------------12-14-15-14-12--
----------------------------------------------11-12-14----------------
-7-5-4--------------------------------11-12-14------------------------
-------7-5--4~~~~~/--------------12-14--------------------------------
----------------------------------------------------------------------

      p                   w/bar         1/2
---------------------------------------14^----------------------------
--------------------0--/12~~~~------12--------------------------------
-14-12-11-/-15~~~-----------------------------15\11-------------------
----------------------------------------------------------------------
----------------------------------------------------13\9~~~~\---------
----------------------------------------------------------------------

  1/2        1/2
------------14^~~~----12--11\9~\7\6~~~~-----11-12-/14~~~--/16~~-14-12-
-14^--12~~~-----------------------------------------------------------
----------------------------------------------------------------------
----------------------------------------------------------------------
----------------------------------------------------------------------
----------------------------------------------------------------------
                                      a.h.                p
-11--12\9~~~~----9\7--9/11--------------------11-12--14-16-14---------
----------------------------12/14--/16-14--/-------------------17-----
----------------------------------------------------------------------
----------------------------------------------------------------------
----------------------------------------------------------------------
----------------------------------------------------------------------


                p    t p h   t p h   t p h   t p h   t p h   t p h
----------------------------------------------------------------------
-16\14\12-----12-11--12-0-9--12-0-7--12-0-9--12-0-5--12-0-7--12-0-9---
----------------------------------------------------------------------
----------------------------------------------------------------------
----------------------------------------------------------------------
----------------------------------------------------------------------

 t p h   t p h   t p h   t p h   t p h   t p h    t p h    t p h   
----------------------------------------------------------------------
-12-0-7--12-0-5--12-0-7--12-0-7--12-0-7--12-0-11--12-0-11--12-0-9------
----------------------------------------------------------------------
----------------------------------------------------------------------
----------------------------------------------------------------------
----------------------------------------------------------------------

 t p h   t p h   t p h   t p h   t p h   t p h   t p h   t p h   
----------------------------------------------------------------------
-12-0-7--12-0-9--12-0-7--12-0-5--12-0-7--12-0-9--12-0-7--12-0-5-------
----------------------------------------------------------------------
----------------------------------------------------------------------
----------------------------------------------------------------------
----------------------------------------------------------------------

 t p h   t p h   t p h   t p h   t p h   t p h    t p h    t p h   
----------------------------------------------------------------------
-12-0-4--12-0-2--12-0-2--12-0-2--12-0-2--12-0-11--12-0-11--12-0-9-----
----------------------------------------------------------------------
----------------------------------------------------------------------
----------------------------------------------------------------------
----------------------------------------------------------------------

 t p h   t p h   t p h   t p h   t p h   t p h   t p h   t p h   
----------------------------------------------------------------------
-12-0-7--12-0-9--12-0-7--12-0-5--12-0-7--12-0-9--12-0-7--12-0-5-------
----------------------------------------------------------------------
----------------------------------------------------------------------
----------------------------------------------------------------------
----------------------------------------------------------------------

--------------------------------------------------------------/12-----
-12-0-4--12-0-5--12-0-5--12-0-5---9---7/9--/12--/14--12--/14--/9------
----------------------------------8---6/8--/11--/13--11--/13----------
----------------------------------------------------------------------
----------------------------------------------------------------------
----------------------------------------------------------------------

#cutline# #cutline#           p     p   full p 
---12---------14--14---14---14-------/19--19~~~-16-------19^----16----
---9----------11--11---11---12---------------------19-16--------------
----------------------------------------------------------------------
----------------------------------------------------------------------
----------------------------------------------------------------------
----------------------------------------------------------------------

   p     full p           full full      p full    p p   full     p
--------21^----19--21~~~\-------------4------------------------4------
-19-16----------------------------------7-4-----4----------------6-4--
---------------------------6^--6^-----------6^----7-6-4--6^^----------
----------------------------------------------------------------------
----------------------------------------------------------------------
----------------------------------------------------------------------

 full    p p   p   p                      1/2              1/2 p p
-----4------------------------------------------7---11\10/11^---9-7-9-
-----4----------------------------------------7-----------------------
-6^-----7-6-4---------------------------8/9^--------------------------
--------------6-4-----------------------------------------------------
------------------6-4-\2---/4~~~~~/-----------------------------------
----------------------------------------------------------------------

   p  p           h  p    h p                  full        1 1/2 bend
----------------------------------------------21^----19~~~---21^------
-12-11-9--11~~~--9-11-9\7--9-7\5~~------------------------------------
------------------------------------/11~~~/---------------------------
----------------------------------------------------------------4/6\4~~~
----------------------------------------------------------------------
----------------------------------------------------------------------

                                          h p        [p.m.]     [p.m.]
----------------------------------------------------------------------
-4-5-/7~~--7/9--7~~\5\4/5\2~~~----------------------------------------
--------------------------------4-6/8~~~---9-8-\6-----------4~~-------
-------------------------------------------------\4---4--4-------4--4-
----------------------------------------------------------------------
----------------------------------------------------------------------

                                               [s.h    ]
----------------------------------------------------------------------
--------------------4-5-7-7/9\7\5\4\2~~-----------4-5-7---/9~~\7----5-
-/6~~/8~~~\6~~~---4----------------------3/4~~--4---------------------
----------------------------------------------------------------------
----------------------------------------------------------------------
----------------------------------------------------------------------

   h             h          p    p p   h h  p p   p  p h h
----------------------------------------------------------------------
-4--5-----------------------------------------------------------------
-------4/6~~~-----------8-9--8----------------------------------------
----------------8-9--11--------11-9-8\6-8-9--8-6------------6---------
-------------------------------------------------9--7-6-7-9-----------
----------------------------------------------------------------------

  p p h h  p p  h  h  p  h  p
----------------------------------------------------------------------
----------------------------------------------------------------------
----------------------------------------------------------------------
----------------------------------------------------------------------
-9-7-6-7-9--7-6---6-7--6----------------------------------------------
----------------9---------9--7----------------------------------------

-- 
  Christopher L. Lott           "And now what shall become of 
  fscll@acad3.alaska.edu        us without any barbarians?   
                                Those people were a kind of 
                                         solution."          
                               



ALWAYS WITH ME, ALWAYS WITH YOU
by Joe Satriani
as recorded live on Time Machine album


Transcribed by Fulvio Lepore
fulvio@geocities.com - flepore@tinet.ch
http://www.geocities.com/Sunsetstrip/Towers/4799/



This is how I play this live version from Time Machine album.


h  hammer on
p  pull off
s  slide
^x bend up to x tones
m  palm mute
~  vibrato
t  tapping (right hand)


Repeat 3 times

-----------0-----------------0-----------------------------------
--------4-----4-----------4-----4--------------4-----------------
-----4-----------4-----4-----------4--------6-----6-----------4--
-----------------------------------------6-----------6-----4-----
--2-----------------2--------------------------------------------
--------------------------------------0-----------------2--------

                Then
-----------     -------------------------------------------------
--2--------     -----------2-----------------4-----------------2-
-----4-----     --------4-----4-----------6-----6-----------4----
--------4--     -----4-----------4-----6-----------6-----4-------
-----------     -------------------------------------------------
-----------     --4-----------------0-----------------2----------


--------------------------
-----------------2--------
--4-----------3-----3-----
-----4-----4-----------4--     This intro is played in palm mute.
--------------------------
--------2-----------------


  m       h  s           s     s   s          h  p          m m m
-----------------------------------------------------------------
-----4--5--7--9--7--5--4--5---------------4--4-5--4--------------
--4--------------------------4--6---4--6-------------6-----------
--------------------------------------------------------4---4-4-4
-----------------------------------------------------------------
-----------------------------------------------------------------


     m m m   h     s                   s              s          
-----------------------------------------------------------------
-----------------------------4--5--7--7-9--7--5--4---------------
--4---------4-6--6--8--6--4-------------------------4--6--4------
-----4-4-4-------------------------------------------------------
-----------------------------------------------------------------
-----------------------------------------------------------------


   h h    s    h                                 h          ^1   
---------------------------------------11--12--12-14--11--14---14
--4-5-7--7-9--9-12-12--11--14--12--14----------------------------
-----------------------------------------------------------------
-----------------------------------------------------------------
-----------------------------------------------------------------
-----------------------------------------------------------------


                        h  h      s        ^1  ^1     s          
--19--18-16----16-----16-18-19--19-21--19----------16---11--14-12
------------19----19-----------------------17--17----------------
-----------------------------------------------------------------
-----------------------------------------------------------------
-----------------------------------------------------------------
-----------------------------------------------------------------


                ^1 ^-1                  ^1 ^-1        S          
11----------19----------18------16------------------21-22--21----
----14--12------18----------------------19-----19----------------
----------------------------16------16---------------------------
-----------------------------------------------------------------
-----------------------------------------------------------------
-----------------------------------------------------------------


  ^1/2 ^-1/2 P          P  P     ~   ^1/2 ^-1/2  P           P P 
--14----------12------17-15-14-14---9------------7------7--------
------------------15--------------------------------10-----10-8-7
-----------------------------------------------------------------
-----------------------------------------------------------------
-----------------------------------------------------------------
-----------------------------------------------------------------


   p p h h p p s h h p p   p p h h   ~  p p   p p                
-----------------------------------------------------------------
-----------------------------------------------------------------
--9-7-6-7-9-7-6-4-6-7-6-4-----------4----------------------------
--------------------------7-5-4-5-7----7-5-4---------------------
---------------------------------------------7-5-4--2------------
-----------------------------------------------------------------


    ^1/2 ^-1/2 ^1/2  h  h    h  h    h h  p p                s  ~
--21--------------------------------7-9-10-9-7----7---p-p--------
-----------------------------------------------10---10-8-7-10-11-
----------------------------9-11-12------------------------------
--------------------9-11-12--------------------------------------
-----------------------------------------------------------------
-----------------------------------------------------------------


       ~        ^1/2 ^-1/2 s   s       ^1/2 ^-1/2      ^1/2 ^-1/2
--------------14------------9------------------------14----------
--11-12---12------------------7-5----14-----------12-------------
-----------------------------------------------------------------
----------------------------------4------------------------------
-----------------------------------------------------------------
-----------------------------------------------------------------


                   ~                     s              s     s  
--14-12-11--------------------11--12--14--16--14--12--11-12------
-----------14-12-11---12--12--------------------------------12-14
-----------------------------------------------------------------
-----------------------------------------------------------------
-----------------------------------------------------------------
-----------------------------------------------------------------


               h  p          ~                              s    
----------11-11-12-11--------------------------------------------
--12--14---------------14--------------------12-----------12-14--
---------------------------11---11--11-11-11-----11-11-11--------
-----------------------------------------------------------------
-----------------------------------------------------------------
-----------------------------------------------------------------


    ^1 ^-1                    s                  s               
----------------11--12--14--14-16--14--12--11--------------------
--14--------12---------------------------------12-14--12---------
-----------------------------------------------------------------
-----------------------------------------------------------------
-----------------------------------------------------------------
-----------------------------------------------------------------


  h  t p  h  t p  h t p  h t p  h t p  h t p  h t p  h t p       
-----------------------------------------------------------------
--11-12-0-11-12-0-9-12-0-7-12-0-9-12-0-7-12-0-5-12-0-9-12-0------
-----------------------------------------------------------------
-----------------------------------------------------------------
-----------------------------------------------------------------
-----------------------------------------------------------------


  h t p  h t p  h t p  h  t p  h  t p  h t p  h t p  h t p       
-----------------------------------------------------------------
--7-12-0-7-12-0-7-12-0-11-12-0-11-12-0-9-12-0-7-12-0-9-12-0------
-----------------------------------------------------------------
-----------------------------------------------------------------
-----------------------------------------------------------------
-----------------------------------------------------------------



  h t p  h t p  h t p  h t p  h t p  h t p  h t p  h t p  h t p  
-----------------------------------------------------------------
--7-12-0-5-12-0-7-12-0-9-12-0-7-12-0-5-12-0-4-12-0-2-12-0-2-12-0-
-----------------------------------------------------------------
-----------------------------------------------------------------
-----------------------------------------------------------------
-----------------------------------------------------------------


  h t p  h  t p  h  t p  h t p  h t p  h t p  h t p  h t p       
-----------------------------------------------------------------
--2-12-0-11-12-0-11-12-0-9-12-0-7-12-0-9-12-0-7-12-0-5-12-0------
-----------------------------------------------------------------
-----------------------------------------------------------------
-----------------------------------------------------------------
-----------------------------------------------------------------


  h t p  h t p  h t p  h t p  h t p  h t p  h t p  h t p         
-----------------------------------------------------------------
--7-12-0-9-12-0-7-12-0-5-12-0-4-12-0-5-12-0-5-12-0-5-12-0--------
-----------------------------------------------------------------
-----------------------------------------------------------------
-----------------------------------------------------------------
-----------------------------------------------------------------


               s            s             h  h              h    
--4-----4--7--7-9--7--9--12--14-14---------------16-19-16-19-16--
--4--7--4--7--7-9--7--9--12--14-14------16-17-19-----------------
-----------------------------------------------------------------
-----------------------------------------------------------------
------------------------------------14---------------------------
-----------------------------------------------------------------


    h            s               ^1 ^-1      ^1   ^1 ^-1 ^1 ^-1  
---------------19-21--19----19-21-------19-21--------------------
--19-16------------------21--------------------------------------
--------18-16------------------------------------6---------------
-----------------------------------------------------------------
-----------------------------------------------------------------
-----------------------------------------------------------------


   h p    ^1 ^-1 ^1 ^-1   h p             ^1                     
--4-7-4------------------4-7-4---4-------------------------------
-------------------------------7---4-7-4----4-7------------------
---------6-------------------------------6------6-4--------------
----------------------------------------------------6-4----------
--------------------------------------------------------6-4---4--
------------------------------------------------------------7---7


   ~       ^1/2 ^-1/2 p         p  p    ~p           ^1       ^1 
---------11------------9----9-------------------------------21---
-------------------------12---12-11-9-11--9----9----9----19------
--------------------------------------------11---11--------------
-----------------------------------------------------------------
--4---2----------------------------------------------------------
-----------------------------------------------------------------


    ^-1      ^1 ^-1 ^1   h p    m  m      h    s          s s    
--21----19-21----------------------------------------------------
-----------------------------------4--5--5-7--7-9--7--5--4-5-2---
--------------------------------4--------------------------------
------------------------4-6-4------------------------------------
-----------------------------------------------------------------
-----------------------------------------------------------------


   s         h p       h p   m m m     m m m  h    s             
-----------------------------------------------------------------
---------4--4-5-4-------------------------------------------4--5-
--6-4-6------------6----------------4--------4-6--6-8-6--4-------
----------------------4-6-4--4-4-4-----4-4-4---------------------
-----------------------------------------------------------------
-----------------------------------------------------------------


                    s        h  h    s          s    s ~   h h p 
------s----------------------------------------------------------
--7--7-9--7--5--4----------4--5--7--7-9--7--5--4-5---------------
-------------------4-6--4---------------------------4-6---6-8-9-8
-----------------------------------------------------------------
-----------------------------------------------------------------
-----------------------------------------------------------------


 p   p p h h p p   p p h h     p p h h  p p s h h  p p h p       
-----------------------------------------------------------------
-----------------------------------------------------------------
--6--------------------------------------------------------------
----9-8-6-8-9-8-6-----------6------------------------------------
------------------9-7-6-7-9---9-7-6-7-9--7-6-4-6-7--6-4-6-4-2----
-----------------------------------------------------------------


    h              h                      h    h p p        h p  
--0--2-----2-----0--2-----2--0--2--4--0--0-2--2-4-2-0-2----2-4-2-
--0-----0--0--0--0-----0--0--0--0--0--0--0--------------0--------
-----------------------------------------------------------------
-----------------------------------------------------------------
-----------------------------------------------------------------
-----------------------------------------------------------------


 p        h p p                                                  
--0-2----2-4-2-0-2----
------0------------0--
----------------------
----------------------
----------------------
----------------------







































variations - click chord images
Transpose chords:
Tuning:
Cool service:
View: Size:
A  A  A
Rating:
Layout:
  • Currently 0/5 Stars.
  • 1
  • 2
  • 3
  • 4
  • 5
 
Accuracy:
  • Currently 3/5 Stars.
  • 1
  • 2
  • 3
  • 4
  • 5
 
click stars to rate
Chordie recommends:
Check out JamPlay.com for online video guitar lessons
Songbook:
Login to add this song to your songbook
Support the artist
Preview/buy this song
MSN Music
Why this non-profit ad?

 
login to add comments/video/corrections