Guitar Tabs, Chords and Lyrics


arise   Sepultura







from:jamesj@svpal.org
 
 
                         Sepultura-Arise
                              Arise      
 
 
 
Fast song, Gotta love sepultura.
 
Try tuning down 1/2 step or even a full step, I cant seem to 
get it right but oh well =)
 
                          P.M.............................
|------------------------------------------------------------------| 
|------------------------------------------------------------------| 
|------------------------------------------------------------------| 
|------------------------------------------------------------------| 
|--5\-4---6----3---3---2----------------------------------3---3----| 
|--3\-2---4----1---1---0---0-0-0-0-0--0-0-0-0-0-0-0-0-0-0-1---1----| 
                                                          
    P.M.  P.M.  P.M.  P.M.
|------------------------------------------------------------------| 
|------------------------------------------------------------------| 
|------------------------------------------------------------------| 
|------------------------------------------------------------------| 
|-2-----7------6-----6-----6--6--7---------------------------------| 
|-0--0-----0------0-----0------------------------------------------| 
                                  
 P.M................   P.M.    P.M.  P.M.    Play 4 times
|---------------------------------------------------| 
|---------------------------------------------------| 
|---------------------------------------------------| 
|---------------------------------------------------| 
|---------------------7-----6------6-----6-6-6-6-7--| 
|0-0-0-0-0-0-0-0-0-0-----0------0-----0-------------| 
                          
             Rhy Fig 1                            Play 4 times  
P.M.              P.M..........................
|-----------|------------------------------------------------| 
|-----------|------------------------------------------------| 
|-----------|------------------------------------------------| 
|-----------|------------------------------------------------| 
|-----3---3-|-2------------------------------------3-----3---| 
|-0---1---1-|-0---0-0-0-0-0--0-0-0-0-0-0-0-0-0-----1-----1---| 
                                                               
 
    P.M.   ...  .....   ...   ....             
|-------------------------------------------------------| 
|-------------------------------------------------------| 
|-------------------------------------------------------| 
|-------------------------------------------------------| 
|--2-----7-----6------6------6------6-----6-6-6--6-6-7--| 
|--0--0-----0------0-----0------0------0----------------| 
                                  
Rhy Fig 2a

|--------------------------------------------------| 
|--------------------------------------------------| 
|--------------------------------------------------| 
|--------------------------------------------------| 
|-------7-----6-----6-----6-----6----6--6--6--6--7-| 
|-0-0-0----0-----0-----0-----0----0----------------| 
                                                         
Rhy Fig 2b w/Echo in "obscured"
P.M....   ...     ...   ...   ...   ......
|----------------------------------------------------| 
|----------------------------------------------------| 
|----------------------------------------------------| 
|----------------------------------------------------| 
|--------7------6-----6-----6-----6--------3------3--| 
|-0-0-0-----0------0-----0-----0-----0--0--1------1--| 

Rhy fig 1 4 times w/ "Obscured by the sun, Apocalyptic clash"
                                          
Riff A
 
|------------------------------------------------------------------| 
|------------------------------------------------------------------| 
|--10---/---12--------(12)------------------10\--------------------| 
|------------------------------------------------------------------| 
|---8---/---10--------(10)-------------------8\--------------------| 
|------------------------------------------------------------------| 
      
                                     ??????????????????             
Chorus P.M.................
|------------------------------------------------------------------| 
|------------------------------------------------------------------| 
|------------------------------------------------------------------| 
|------------------------------------------------------------------| 
|--5---3-----------------------------3-----------------------------| 
|--3---1---4-4-4-4-4-4-4-4-4-4-4-4---1-----------------------------| 
             
 
2nd verse 
Rhy fig 1 (4 times)
           P.M........................
|---------|-----------------------------------------| 
|---------|-----------------------------------------| 
|---------|-----------------------------------------| 
|---------|-----------------------------------------| 
|-2-------|------------------------------3--\---2---| 
|-0-------|-0--0---0---0-0-0-0--0--0--0--1--\---0---| 
                                                     
 P.M.....................
|-----------------------------------| 
|-----------------------------------| 
|-----------------------------------| 
|-----------------------------------| 
|--------------------------3--\--2--| 
|0-0-0-0-0-0-0---0--0--0---1--\--0--| 
                                    
                                                    Play 4 times  
 P.M....................                     \....................
|-----------------------|------------------------------------------| 
|-----------------------|------------------------------------------| 
|-----------------------|------------------------------------------| 
|-----------------------|------------------------------------------| 
|-----------------------|-3--\--2-----4--/--6----------------------| 
|-0--0--0--0--0--0--0--0|-1--\--0-----2--/--4--0--0--0--0--0--0-0-0| 
                         

 
P.M..............................................................
|------------------------------------------------------------------| 
|------------------------------------------------------------------| 
|------------------------------------------------------------------| 
|------------------------------------------------------------------| 
|------------------------------------------------------------------| 
|--4--3--0--4--3--0--3--2--0--2--1--0--0--0---0---0----------------| 
                                                           
 P.M.   ...     ....   ....     ......................
|------------------------------------------------------------------| 
|------------------------------------------------------------------| 
|------------------------------------------------------------------| 
|------------------------------------------------------------------| 
|---6\5------6\5-----5\4------4\3----------------------------------| 
|---4\3--0---4\3--0--3\2---0--2\1--0--0---0---0---0----------------| 
                                                      

W/ "I see the world, old. I see the world dead."
|------------------------------------------------------------------| 
|------------------------------------------------------------------| 
|------------------------------------------------------------------| 
|------------------------------------------------------------------| 
|---------------------------------------6-\-5----6-\-5-----6-------| 
|-0-0-0-0-0-0-0-0-0-0-0-0-0-0-0-0-0-0-0-4-\-3-0--4-\-3--0--4-------| 

Solo rhythm                                     
P.M..........................................      ..  ...     .....
|------------------------------------------------------------------| 
|------------------------------------------------------------------| 
|------------------------------------------------------------------| 
|------------------------------------------------------------------| 
|----------------------------------------------6--5---6-5---6-5----| 
|-0--0--0-0-0-0-0-0-0-0-0-0-0-0-0-0-0-0-0-0-0--4--3-0-4-3-0-4-3-4-1| 

rhy fig 2a 2times                                          
w/ "Victims of war"
|------------------------------------------------------------------| 
|------------------------------------------------------------------| 
|------------------------------------------------------------------| 
|-2------------2----------------------2-----2------1---------------| 
|------------------------------------------------------------------| 
|---1-1-1-1-1----1-1-1-1-1--1--1-1-1-----1-----------1-1-1-1-1-1-1-| 
                    
 
 
Lyrics
 
Obscured by the sun
Apocalyptic Clash
Cities fall in ruin
Why must we die?
 
Obliteration of mankind
Under a pale grey sky we shall arise
 
I did nothing saw nothing
Terrorist confrontation
Waiting for the end
Wartime conspiracy
 
I see the world old
I see the world dead
 
Victims of war
eeking some salvation
Last wish
Fatality
I've no land
I'm from nowhere
Ashes to ashes
Dust to dust
 

 
Face the enemy
Manic thoughts
Religious Intervention
Problems remain
 
Obliteration of mankind
Under a pale grey sky we shall arise
 
 
***********************************************************************    
jamesj@svpal.org                    | Check out Fear Factory's new
Face Down Arms out                  | Album-Demanufacture.
  Nailed to the Cross of Doubt      |  It's fuckin' KILLER
Blood Runs Like Rain                |**********************************
  Drowning for this world in vain   |Fav Bands
Crown Of Black Thorns               |Megadeth/Slayer/Pantera/Sepultura
  Human Skin, Ripped and torn       |Fear Factory/Machine Head/CoC
Where is Your Savior now?           |And My Own.                                 
       --Burton C. Bell/Fear Factory|
***********************************************************************    









Important: The song above is NOT stored on the Chordie server. The original song is hosted at tabfu.thudspace.net. Chordie works as a search engine and provides on-the-fly formatting. Chordie does not index songs against artists'/composers' will. To remove this song please click here.

This song is displayed as text-only. Transposing and tuning is only available for chordpro-songs.

Login - add to songbook

Rating click stars to rate

Layout
Accuracy

SHARE PAGE  




You need to log in to post comments