Date: Tue, 19 Dec 95 17:18:12 CST

                                  EMI
                               by Sex Pistols
                        from "Never Mind the Bollocks"

Transcribed by Sergei Lissianoi (lissiano@twsuvm.uc.twsu.edu)

Exact picking patterns are not shown.

Intro

 F# // //// /// // //// // //    B / // /    F# / // //   G#/
------------------------------|-----------------------------------------
------------------------------|-----------------------------------------
--11--------------------------|--4--------------------------------------
--11----------%-----%-----%---|--4-----%-------4-----%------6-----------
--9---------------------------|--2-------------4------------6-----------
------------------------------|----------------2------------4------------
      4 bars                  |             4 bars
                              |
------------------------------|------------------------------------------
------4------4-4------%-------|------------------------------------------
----------------------%-------|--2-2-1-2-4-2-1---------------------------
---2-----2-2------------------|----------------2--2-2--2-2---4-----------

Last time without G#

First verse

There  is unlimited supply

Palm Mute

  B                    F#
------------------------------------------------------------------------
------------------------------------------------------------------------
------------------------------------------------------------------------
--4-----------%---------------------------------------------------------
--2--------------------4------------------------------------------------
-----------------------2------------------------------------------------


------------------------------------------------------------------------
--------------%--------2------------------------------------------------
--2---------------------------------------------------------------------
------------------------------------------------------------------------

                                       Same for the rest of the verse

and there is no reason why
I tell you it was all a frame
                                           E

they only did it cos of fame              Who?

<....P.M ...........................>
------------------------------------------------------------------------
------------------------------------------------------------------------
--------------------------------------------9-9-9-----------------------
--4-----------%-----------------------------9-9-9-----------------------
--2--------------------4--------------------7-7-7-----------------------
-----------------------2------------------------------------------------


------------------------------------------------------------------------
--------------%--------4------------------------------------------------
--2-----------------------------------------7-7-7-----------------------
------------------------------------------------------------------------


chorus
   B            E       B                    F#

E  M I             EMI

----------------------------- |---------------2-4-2---------------------
----------------------------- |---------------2-4-2---------------------
----------------9-9-9-------  |-----------------------------------------
---9----------%-9-9-9---9---- |-----------------------------------------
---9------------7-7-7---9---- |-----------------------------------------
---7--------------------7---- |-----------------------------------------
                       Repeat |..then after the
                              |       last one
----------------------------- |-----------------------------------------
--------------%-------------- |-----------------------------------------
----------------7-7-7-------- |-----------------------------------------
-6-7-7-7----------------6-7-7 |---------------2-4-2---------------------





second verse
  too many people had the suss
  B                    F#                 G#
------------------------------------------------------------------------
------------------------------------------------------------------------
-(4)--------------------------------------------------------------------
--4-----------%-------(4)-----------(4)--(6)----------------------------
--2--------------------4-------------4-4--6-----------------------------
-----------------------2-------------2-2--4-----------------------------


------------------------------------------------------------------------
--------------%---------------------------------------------------------
--2---------------------------------------------------------------------
-----------------------2-------------2-2--4-----------------------------


too many people support us
An unlimited amount
Too many outlets in and out Who?

chorus

bridge

And sir and friends are crucified a day they wish that we had died
C#                          G#      C#        A                B
--------------------------------------------------------------------------
-----------------------------------------------------------------7--------
6------------------------------------6-----------------------8-------8--
-----------------------------6----------------7---------------------------
--------------------------------------------------------------------------
--------------------------------------------------------------------------
                                                             ^Let ring^

-------------------------------------------------------------------------
-------------------------------------4-----------------------------------
4----------------------------------------------------------------7-------
------------------------------4---------------5--------------------------

We are an addition        We are ruled by none
C#             G#     G                    F#
------------------------------------------------------------------------
------------------------------------------------------------------------
6-----------------------------------------------------------------------
----------------6-----5---------------------4---------------------------
------------------------------------------------------------------------
------------------------------------------------------------------------


------------------------------------------------------------------------
------------------------------------------------------------------------
4-----------------------------------------------------------------------
---------------4------3---------------------2---------------------------
F

Never ever ever
F#


Solo:  One of the greatest guitar solos EVER (and I did listen to Van Halen
and Steve Vai).
B                     D#   C#     B
7-7-7----7-7-7---7------------------------------------------------------
------7--------7--------------------------------------------------------
-----------------------8~---6-6-----------------------------------------
-----------------------------------9-9-----------------REPEAT-----------
------------------------------------------------------------------------
------------------------------------------------------------------------
                       ^
                       Vibrato
------------------------------------------------------------------------
------------------------------------------------------------------------
-----------------------6----4-4----2-2------------------REPEAT----------
----6-7-7-7--6-7-7-7----------------------------------------------------


Third verse
   (Guitar plays full chords B on VII fret and F# on II fret. )
   (Bass plays the same figure as in the first verse .)


And you thought that we were faking that we were all just money making
You do not believe we're for real or would just lose our cheap appeal

Fourth verse
Dont' judge a book just by the cover unless you cover just another
And blind acceptance is a sign Of fucking fools who stand in line

chorus

second bridge   (Same chords as in the first verse picked differently)

Unlimited edition with an unlimited supply
that was the only reason we all had to say goodbye
                                      ^
                              Bass:    slide up from the 2nd fret on
                                                                 the E
                                                                 string.
outro (w/ad-lib, repeat until end)
       E    B









































variations - click chord images
Transpose chords:
Tuning:
Cool service:
View: Size:
A  A  A
Rating:
Layout:
  • Currently 0/5 Stars.
  • 1
  • 2
  • 3
  • 4
  • 5
 
Accuracy:
  • Currently 3/5 Stars.
  • 1
  • 2
  • 3
  • 4
  • 5
 
click stars to rate
Chordie recommends:
Check out JamPlay.com for online video guitar lessons
Songbook:
Login to add this song to your songbook
Support the artist
Preview/buy this song
MSN Music
Why this non-profit ad?

 
login to add comments/video/corrections