apache

Shadows



submitted, but not written, by: 

APACHE (The bit everone remembers)
Chords are something like Am C F G (Can't remember what order so don't 
ask! You should be able to work that bit out from the record)

E------------------------------------------------------------------------------
B------------------------------------------------------------------------------
G--------2--------2-----------------------------------2--------2---------------
D----2--------2--------2-(H)-4----2----0-----2----2--------2--------2-(H)-4----
A------------------------------------------------------------------------------
E------------------------------------------------------------------------------

E----------------------------------------------------------------
B--------------------------3--------3----------------------------
G--------------------2--------2--------2-(H)-4----2----0----2----
D---2----0----2--------------------------------------------------
A----------------------------------------------------------------
E----------------------------------------------------------------

E--------------------------------------0-------------
B--------------1-----0-----1-----3----------1-----2--
G--------2-------------------------------------------
D--3-------------------------------------------------
A----------------------------------------------------
E----------------------------------------------------

E----------------------------------------------------------------------------
B----------------------------------------------------------------------------
G----------------------------------------------------------------------------
D-----------3--3--3------------3--3--3-------------3--3--3----3----2---------
A-----3--------------3--3--3-----------3--3--3-------------------------0-----
E----------------------------------------------------------------------------
 ||<================MUTE STRINGS WITH RIGHT HAND===============>||

The last bit of tab with the muting might be a bit dodgy on the rhythm 
(Play it as triplets and work it out from there) 



Subject: APACHE by the Shadows 
Date: Sat, 16 Dec 95 16:06:25 +0000


APACHE by the Shadows

Transcribed by Stephane Lemetayer : slemetay@merlin.enssat.fr
with the help of 
Introduction:

E------------------------------------|
B------------------8/10-8-5----------|
G----5-7-7B-7----5------------------o|
D--7-----------7--------------------o|
A------------------------------------|
E------------------------------------|

1st theme:    *
E-----------------------------------------------
B-----------------------------------------(2)---
G--------2--------2-----------------------------
D----2--------2--------2-(H)-4----2----0-----2--
A-----------------------------------------------
E-----------------------------------------------

2nd theme:   *
E--------------------------------------------------
B---------3--------3---------------------(3)-------
G---2--------2--------2-(H)-4----2----0------2-----
D--------------------------------------------------
A--------------------------------------------------
E--------------------------------------------------

3rd theme:
E----------------------------------------------------------------------------
B----------------------------------------------------------------------------
G----------------------------------------------------------------------------
D-----------3--3--3------------3--3--3-------------3--3--3----3----2---------
A-----3--------------3--3--3-----------3--3--3-------------------------0-----
E----------------------------------------------------------------------------
 ||<================MUTE STRINGS WITH RIGHT HAND===============>||

The last bit of tab with the muting might be a bit dodgy on the rhythm 
(Play it as triplets and work it out from there) 
 
4th theme:

   |1st      |2nd
E----------------------------------|---0-------------|----3-3---6-------|
B--------------1-----0-----1-----3-|------3---1------|-3/5-5-5/8--8-7-8-|
G--------2-------------------------|-------------2---|0----------------o|
D--3-------------------------------|-----------------|-----------------o|
A----------------------------------|-----------------|------------------|
E----------------------------------|-----------------|------------------|

Now the way it is played :

Intro
2*1st theme
2nd theme + 1st theme
2* 3rd theme
4th theme +1st theme
2*3rd theme

variation of the rythm(triplets of notes)
2* 1st theme (with the * note) 
2nd theme + 1st theme (with the * note) 
2* 3rd theme
4th theme (little variation G|000-01-01-00 instead of the first)
2* 3rd theme
then
D--------------------------33333333-22222222-------------------
A---------00000000-33333333-----------------000000000-00000000-
E-11111111-----------------------------------------------------

fade out with the intro theme.

thanks to the previous version, I hope this one is better.
Enjoy it!









































variations - click chord images
Transpose chords:
Tuning:
Cool service:
View: Size:
A  A  A
Rating:
Layout:
  • Currently 0/5 Stars.
  • 1
  • 2
  • 3
  • 4
  • 5
 
Accuracy:
  • Currently 3/5 Stars.
  • 1
  • 2
  • 3
  • 4
  • 5
 
click stars to rate
Chordie recommends:
Learn to play guitar with video-based, online guitar lessons at JamPlay.com
Songbook:
Login to add this song to your songbook
Support the artist
Preview/buy this song
MSN Music
Why this non-profit ad?

 
login to add comments/video/corrections