Guitar Tabs, Chords and Lyrics


reids situation   Shadowy Men On A Shadowy Planet



"Reid's Situation"
SHADOWY MEN ON A SHADOWY PLANET
From the album DIM THE LIGHTS, CHILL THE HAM
Tabbed by Travis Bursik
(mary.madura@azwest.net)


E|-------| ----------------------------------------------------|
B|-------|.----------------------------------------------------|
G|-------| ----------------------------------------------------|
D|-------| ----------------------------------------------------|
A|-------|.---------4-2-2-2---2---2----------4-2---------------|
E|-4-4-3-| -2-2-0-2---------4---4----2-2-0-2-----0-0-0-2^3-2^3-|

E|----------------------------------------------------- |
B|-----------------------------------------------------.|
G|----------------------------------------------------- |
D|-------1s4-----------------------1s4-----------2----- |
A|-----------4-2-4-2-4-2---------------4-2-4-2-4---4-2-.|
E|-0-0-0-----------------4-2-0-0-0--------------------- |

E|-------------------------------------------------|
B|-------------------------------------------------|
G|-------------------------------------------------|
D|-------1s4-----------------------1s4-------------|
A|-----------4-2-4-2-4-2---------------4-2-4-2-4-2-|
E|-0-0-0-----------------4-2-0-0-0-----------------|

E|-0---0-0---0-0-0-0-0-0-0-0-0-0-0-0-0-0-0-0-0-|
B|-0---0-0---3-3-2-2-0-0-2-0-0-3-3-2-2-0-0-2-0-|
G|-2---2-2---2-2-2-2-2-2-2-2-2-2-2-2-2-2-2-2-2-|
D|-2---2-2-------------------------------------|
A|---------------------------------------------|
E|---------------------------------------------|

E|-----------------------------------------------------------|
B|-----------------------------------------------------------|
G|-----------------------------------------------------------|
D|-----------------------------------------------------------|
A|----------------4-2-2-2---2---2----------4-2---------------|
E|-4-4-3--2-2-0-2---------4---4----2-2-0-2-----0-0-0-2^3-2^3-|

E|-----------------------------------------------------|
B|-----------------------------------------------------|
G|-----------------------------------------------------|
D|-------1s4-----------------------1s4-----------2-----|
A|-----------4-2-4-2-4-2---------------4-2-4-2-4---4-2-|
E|-0-0-0-----------------4-2-0-0-0---------------------|

E|-------------------------------------------------|
B|-------------------------------------------------|
G|-------------------------------------------------|
D|-------1s4-----------------------1s4-------------|
A|-----------4-2-4-2-4-2---------------4-2-4-2-4-2-|
E|-0-0-0-----------------4-2-0-0-0-----------------|

E|-0---------------------0----|
B|-0---------------------0----|
G|-4---------------------1----| Not sure about this
D|-4---------------------2----| last line.  If yous
A|-2--------2-2-2-2------2----| gots a better one, 
E|--------4---------4-2--0----| send it.






Important: The song above is NOT stored on the Chordie server. The original song is hosted at tabfu.thudspace.net. Chordie works as a search engine and provides on-the-fly formatting. Chordie does not index songs against artists/composers will. To remove this song please click here.

This song is displayed as text-only. Transposing and tuning is only available for chordpro-songs.

Login - add to songbook

Rating click stars to rate

Layout
Accuracy

SHARE PAGE  




You need to log in to post comments