Guitar Tabs, Chords and Lyrics


59th st bridge song   Simon & Garfunkel














Date: Sun, 8 Dec 1996 15:03:48 -0800 (PST)
From: Dan DeSelm 
Subject: TAB: "59th St. Bridge Song" by "Simon and Garfunkel"

59th St. Bridge Song 
  by Simon 'n' Garfunkel
  from Dan DeSelm, U.C. Berkeley

I've seen other arrangements of this song but this is the one I like the
best.  It fits very well with the lyrics.  The timing might be difficult if
you are not already very familiar with the song. 

Here it is:


e----------------------------------------------------|
B------1----3-------------0-----1-----3----0---------|
G------0---------------------------------------------|
D------2--------------0---------0-----2-----------0--|
A--3-------------2-----------------------------------|
E---------------------------------------------3------|
       Slow down           you move  too fast


e----------0---------------------------------3-------|
B---------------0----3----0----3------3------------3-|
G-----0----------------------------------------------|
D----------2--------------0---------------0--------0-|
A--3-----------------2------------0------------------|
E-----------------------------------------------3----|
      you've got to make the  morn - ing   last  just


e----------------------------------------------------|
B-------1----0----3----3----0----1---3-------0-------|  
G----------------------------------------------------|
D-------2------------------------0-------2---------0-|
A---3-------------2----2-----------------------------| 
E-----------------------------------------------3----|
        kickin'   down     the  cobble - stones


e----------0--------------------------------7------3-|
B---------------0----3----0----3------3--------------|
G-----0--------------------------------------------0-| 
D----------2--------------0---------------0----0-----|
A--3-----------------2------------0------------------| (0)(2)
E----------------------------------------------------| 
           lookin' for fun &   fee - lin'   groo-vy









Important: The song above is NOT stored on the Chordie server. The original song is hosted at tabfu.thudspace.net. Chordie works as a search engine and provides on-the-fly formatting. Chordie does not index songs against artists'/composers' will. To remove this song please click here.

This song is displayed as text-only. Transposing and tuning is only available for chordpro-songs.

Login - add to songbook

Rating click stars to rate

Layout
Accuracy

SHARE PAGE  




You need to log in to post comments