"yes"; ?> neither can i by Slashs Snakepit - guitar chords, guitar tabs and lyrics - chordie

neither can i

Slashs Snakepit



||------------------|-----------------||-------0---------|-------0----------||
||--8-------8-------|-----8---8-------||-7-------7-------|-----0---5-0------||
||:---9---9---9---9-|---9---9---9---9-||---8-------8---0-|---0-----------0-:||
||:-----9-------9---|-8-----------8---||-----7-------7---|-5-----------5---:||
||------------------|-----------------||-----------------|------------------||
||------------------|-----------------||-----------------|------------------||
|-------0---------|-------0--------||-----------0-----|-------0-2---7---|
|-7-------7-------|-----0---5-0----||-7-------7---7---|-----4---------7-|
|---8-------8---0-|---0---------0-:||---8---8-------8-|---5------s8-----|
|-----7-------7---|-5-------------:||-----7-----------|-4---------------|
|-----------------|----------------||-----------------|-----------------|
|-----------------|----------------||-----------------|-----------------|
|-----------------|   |-------------------|
|10---------------|   |-------------------|
|---8-------------|   |-------------------|
|-----9-----------|   |---2---2---2---0h2-|
|-----------------|   |-----1---0---------|
|---------10s-----|   |-0-----------3-----|

 AAAABCDEAAAAFG
Accoustic:              
 JKJKLLLMNONO
Electric:             
Chorus:
 BIBIBIBIBIBIBIBI
                 



Accoustic:

 ABC
                                                     
|-------------------|   |-----5-------------|   |-----5-------------|
|-------------------|   |-----5-----2-2-0---|   |-----4-----2-2-0---|
|-------------------|   |-----5-----------2-|   |-----5-----------2-|
|---2---2---2---0h2-|   |-----7-------------|   |-----4-------------|
|-----1---0---------|   |-0-----------------|   |-0-----------------|
|-0-----------3-----|   |-------------------|   |-------------------|
  .   .   .   .           .   .   .   .           .   .   .   .


 DEF
                                                        
|-----5--5----------|   |-------------------------|   |-----------------|
|-----4--4--2-2-0---|   |-------------------------|   |-----------------|
|-----5--5--------2-|   |-2-0---------------------|   |---0---0---0---0-|
|-----3-------------|   |-----2-1-0---0-----------|   |-----------------|
|-0-----------------|   |-----------3---3-0-------|   |-3---2---0-------|
|-------------------|   |-------------------3-2-1-|   |-------------3---|
  .   .   .   .           .     .     .     .           .   .   .   .

 GB
                                
|---------------------|   |---------------------|   |---------------------|
|-3-3-3-3-0-----------|   |-----2b3-2v----------|   |-----2b3-2v----------|
|-2-2-2-2-2-----------|   |-----2b3-2v----------|   |-----2b3-2v----------|
|-0-0-0-0-1---------2-|   |-------------------2-|   |-5b-----------------2-|
|---------2-----2-5---|   |---------------2-5---|   |---------------2-5---|
|---------------------|   |-3-0-----------------|   |---0-----------------|
  .     .   .   .           .   .     .   .           .   .     .   .




Electric guitar:

 JKL
                                                   
|-------------------|   |----------------|   |-----------------------|
|-------------------|   |----------------|   |-----------------------|
|-------------------|   |----------------|   |-----0h2---0h2---0h2---|
|-----5---7b8r7-----|   |-----5----------|   |---------------------2-|
|---7---7-----------|   |---7---7--------|   |-0-0-----0-----0-------|
|-------------------|   |---------5b-----|   |-----------------------|
  .   .   .     .         .   .   .   .        .   .     .     .


 MNO
                                                               
|-------------------------------|   |---------------------|   |-------------|
|-14b15r14-12-------------------|   |---------------------|   |-------------|
|-14b15r14-12----------12b13b14-|   |--------12-----------|   |-------------|
|-------------14-11-14----------|   |---12h14--14-----b17-|   |-r14---------|
|-------------------------------|   |---------------------|   |-------------|
|-------------------------------|   |---------------------|   |-------------|
   .     .        .     .        .           .  .  .




Solo

--------------------------------------------------------------------------
---------8-------------------s8-7-8-7s10------8h10p8p7----8--7------h8p7--
------------7-7h9v--------------------------------------9-----------------
---7s8s9------------------------------------------------------------------
--------------------------------------------------------------------------
--------------------------------------------------------------------------

----------------7p6-7-6---6---6---------------------8-11-12-11-8-11-8h11p8
------------------------8---8---8p7p5-8-5-7-8-10-12-----------------------
--9--9v-------------------------------------------------------------------
--------------------------------------------------------------------------
--------------------------------------------------------------------------
--------------------------------------------------------------------------

--------------------------------------------------------------------------
-12p9-13p9-12h13p12p10-12-------------------------------------------------
---------------------------14b16--------r14p12----12-14-12----------------
-----------------------------------------------14-----------14-14-14-14v--
--------------------------------------------------------------------------
--------------------------------------------------------------------------

--------------------------------------------------------------------------
----------13-----15-----13-12-13-12---------------------------------------
---12-14------14----14----------------------------------------------------
--------------------------------------------------------------------------
--------------------------------------------------------------------------
--------------------------------------------------------------------------




========================================================================
=Alexandre MORIN                           Ecole Centrale Paris, FRANCE=
=email:morina6@cti.ecp.fr                http://www.cti.ecp.fr/~morina6=
=Microsoft is not the answer.Microsoft is the question.The answer is No=
========================================================================



Back to index / s / slashs_snakep


A B C D E F G
variations - click chord images
Transpose chords:
Tuning:
Cool service:
View: Size:
A  A  A
Rating:
Layout:
  • Currently 2.5/5 Stars.
  • 1
  • 2
  • 3
  • 4
  • 5
 
Accuracy:
  • Currently 3/5 Stars.
  • 1
  • 2
  • 3
  • 4
  • 5
 
click stars to rate
Chordie recommends:
Check out JamPlay.com for online video guitar lessons
Songbook:
Login to add this song to your songbook
Support the artist
Preview/buy this song
MSN Music
Why this non-profit ad?

 
login to add comments/video/corrections