"yes"; ?> the boy with the thorn in his side by Smiths - guitar chords, guitar tabs and lyrics - chordie

the boy with the thorn in his side

Smiths


Subject: Smiths- the.boy.with.the.thorn.in.his.side.tab
To: guitar@nevada.edu
Date: Tue, 7 Jun 1994 04:37:43 -0500 (CDT)

 
 
The Boy With the Thorn in His Side 
 
As usual, dont quote me on the bass part as I dont pay too too much
attention to it.  
  
intro (i'm just showing the chords, i'm too lazy to tab out each 
time he strums the chord)
                         
 
  C   D         C  Cmaj7 Dsus4C  D
e-3---2---     -3---3----3----0--2--
b-5---3---     -5---5----3----1--3--
g-5---2---     -5---4----2----0--2--
d-5---0---  x2 -5---5----0----2--0--
a---------     ---------------3-----
e---------     ---------------------
 
g---------     ---------------------
d-----0---     ----------0--0----0--
a-3-----0-     -3-------------3-----
e---------     ----3--0------------- 
 
The song repeats the following pattern, then ends with the intro, 
then back through it again.  Also again, i dont tab out all the
strumming (which insnt to be confused with the times he is actually 
holding the notes)
 
 
  G           Am                              C/Am
              The   boy with the thorn in his side      behind the
e-7-----7-7----8-8--5-------------------------8-------------------
b-8-----8-8----1010-7-------------------------8-------------------
g-7-----7-7----9-9--7-------------------------9-------------------
d-------------------7---------------------------------------------
a-----------------------------------------------------------------
e-----------------------------------------------------------------
         
g-----------------------------------------2-----------------------
d-------------------0----------0-0-----4--------------------2-----
a---------------------------------------------0--3-0------3-------
e-3-------3------------------------------------------------------- 
 
  C      D
  hatred there lies 
e-10-----5-----------
b-8------7-----------    you go though that twice then change the
g-9------7-----------    last C to a 3 one for the rest of the song
d-10-----7-----------                5
a--------------------                5
e--------------------                5
                     
g--------------------
d--------0-----------
a-3------------0---0-
e----------------2---
 
 
                                                                   
end with the intro
 
 
Tom
shruew@cyclone.xnet.com
 








































variations - click chord images
Transpose chords:
Tuning:
Cool service:
View: Size:
A  A  A
Rating:
Layout:
  • Currently 0/5 Stars.
  • 1
  • 2
  • 3
  • 4
  • 5
 
Accuracy:
  • Currently 3/5 Stars.
  • 1
  • 2
  • 3
  • 4
  • 5
 
click stars to rate
Chordie recommends:
Get acoustic guitar lessons and electric guitar lessons at JamPlay.com
Songbook:
Login to add this song to your songbook
Support the artist
Preview/buy this song
MSN Music
Why this non-profit ad?

 
login to add comments/video/corrections