Guitar Tabs, Chords and Lyrics


i am im me   Dee Snider









Date: Mon, 22 Jan 1996 14:04:31 EST


"I Am, I'm Me"
words and music by Dee Snider
transcription by Mike C. Zalot

Verse Pattern

 E                       
|----------------|----------------|
|----------------|----------------|
|----------------|----------------|
|2-2-2-2-2-2-2-2-|2-2-2-2-2-2-2-2-|
|2-2-2-2-2-2-2-2-|2-2-2-2-2-2-2-2-|
|0-0-0-0-0-0-0-0-|0-0-0-0-0-0-0-0-|

Palm Muting-----------------------|




Chorus Pattern
 B                E
|----------------|----------------|
|----------------|----------------|
|4-----------4---|----------------|
|4-----------4---|2----------2----|
|2-----------2---|2----------2----|
|----------------|0----------0----|


Post-Chorus Pattern
 E                B
|----------------|----------------|
|----------------|----------------|
|----------------|4---------------|
|2---2---2---2---|2---------------|
|2---2---2---2---|2---------------|
|0---0---0---0---|----------------|
 ^   ^   ^   ^    ^

Who are you to look down at what I believe
I'm on to your thinking and how you decieve
Well you can't abuse me, I won't stand no more
Yes, I know the reason, yes I know the score

I am, and I'm me
I will, you'll see
I am, and I'm me

How I tried to please you live the way you said
Do the things that you do like the living dead
Then the truth it hit me, got me off my knees
It's my live I'll live it, I'll live as I please 










Important: The song above is NOT stored on the Chordie server. The original song is hosted at tabfu.thudspace.net. Chordie works as a search engine and provides on-the-fly formatting. Chordie does not index songs against artists'/composers' will. To remove this song please click here.

This song is displayed as text-only. Transposing and tuning is only available for chordpro-songs.

Login - add to songbook

Rating click stars to rate

Layout
Accuracy

SHARE PAGE  




You need to log in to post comments