"yes"; ?> black gold by Soul Asylum - guitar chords, guitar tabs and lyrics - chordie

black gold

Soul Asylum




In a previous article, lepine@monaco.diag.stratus.com (Don Lepine) says:

                            transcribed by:
                             Jef lepine

Riff A:        E||-------------------------------||
               B||------------------------3------||
               G||----------0-----0-----0--------||
               D||--------2-----0-----2----------||
               A||--0-2-3-----2-----0------------||
               E||-------------------------------||

Riff B:        E||---10---9----------------------------------||
               B||O--10--10--12-12-12--10--10--8-8-8-8--7---O||
               G||----9---9--12-12-12--11---9--7-7-7-7--7----||
               D||-----------12-12-12--12--11--9-9-9-9--9----||
               A||O-----------------------------------------O||
               E||-------------------------------------------||





Rhythm 2:      E||---------------------------|----------------------||
               B||0---7--5--7--8--5--7--7----|--10--8--8--8--7-----0||
               G||----7--6--7--7--6--7--7----|---9--7--7--7--7------||
               D||----7--7--7--7--9--7--7----|--11--9--8--8--7------||
               A||0--------------------------|---------------------0||
               E||---------------------------|----------------------||





Ok now that there's all the technical stuff i'll tell you how it all
fits together.:

First off you want to play with slight distortion with a bit of choruss.

Intro: Riff A, Riff B, Rhythm 1
Verse 1: Rhythm 2 (twice), Rhythm 1
Verse 2: Rhythm 2 (twice), Rhythm 1
Verse 3: Rhythm 2,  Rhythm 1, Interlude, Solo (which i didnt include)
Outro A: Riff B, Rhythm 1 (don't repeat)
Outro B: Rhythm 2, Rhythm 1(twice), Interlude, Riff B


For those of you who are confused on which chords to use, here ya go.

G=320033
D=xx0232
A=x02220
E=022100

This is a *LOOSE* transcription to the song, ie: in certain areas you pick
around with the chords. And yes i didnt transcribe the solo.


Jef Lepine
lepine@monaco.diag.stratus.com`



Subject: TAB:  _Black_Gold_ by Soul Asylum

Well, this was published in Guitar or something a bit after I figured it out.
Oh well, mine is very close, just not very orderly, but I've been too sick
to care.   If you listen to the song you should be able to figure out easily
what goes where.

                        -Dan
                            dnewcomb@cybernet.cse.fau.edu


Riff A:             Rereat a few times
-----------------------2--|--2---2-----2--------------------------------------
-----------------------3--|----3---3-----3------------------------------------
---------0----0-----0--2--|----------2-----2----------------------------------
-------2----0-----0----0--|---------------------------------------------------
-0-2-3----2-----0---------|---------------------------------------------------
--------------------------|---------------------------------------------------

Riff B: (Play Twice at begining)
----10-----9---7----5---5--3--3--3------2-------------------------------------
----10----10---8----7---5--3--3----2----3-------------------------------------
-11----11--------9-------------------3----------------------------------------
------------------------------------------------------------------------------
------------------------------------------------------------------------------
------------------------------------------------------------------------------

Riff C: (Used during the chorus, a little heavier)
--3-3----------3-3-------------------------------------2------------------
--3-3----------3-3-------------------------------------3------------------
--0-0-----7-7--0-0---7-7--------------0-----0------0---2------------------
--0-0-----7-7--0-0---7-7------------2-----0------0-----0------------------
--0-0-----5-5--0-0---5-5----0--2--3-----2------0--------------------------
--0-3----------0-3--------------------------------------------------------
  |-|---I may be off on these.

Riff D: (For the Verses)
-2--0--2--3--0--2----5-3--3---3---2-------------------------------------------
-3--3--3--3--3--3----3-3--3---3---3-------------------------------------------
----------------------------2-------2-----------------------------------------
------------------------------------------------------------------------------
------------------------------------------------------------------------------
------------------------------------------------------------------------------

Piece of cake.  I didn't do the middle part with all the incedental noises
as it's too hard to hear what's going on.

--
Daniel A. Newcombe                                  Clayton State College
Computing Services                                  Morrow, GA 30260
E-Mail Address: newcombe@aa.csc.peachnet.edu        (404)-961-3421
-=-=-=-=-=-=-=-=-=-=-=-=-=-=-=-=-=-=-=-=-=-=-=-=-=-=-=-=-=-=-=-=-=-=-=-=-=

From Anna Braue                        Jul 26 '94 at 10:22 pm 600


Return-Path: 
Date: Tue, 26 Jul 1994 22:22:24 +1000 (GMT+1000)
Subject: Black Gold - Soul Asylum FULL TAB I posted this a while ago but it must
 have gotten lost -- resent as per Most.Wanted
To: guitar@nevada.edu

My transcription of "Black Gold" by Soul Asylum.
 
Done by ear, so if something just doesn't sound right.. well, hey. 
Whaddya want for free?
 
Because I felt like it, I transcribed both guitars.  If you want to
fudge it for one (likely), play the acoustic part and you should do
well enough.  As usual, listen to the song for the correct timings as
getting them all right on the tab is a royal pain in the ass.  You'll
find that the guitar parts are well-synchronized to the vocals so it
shouldn't be too hard.
 
 
{clean electric
{------------------------2-2----2-2-2-----2---2---2-------------------
{----------------------3-3-3----------3-----3---3---3-----------------
{---------0-----0----2---2-2------------2-------------2---------------
{-------2-----0----------0-0------------------------------------------
{-0-2-3-----2-----0---------------------------------------------------
{---------------------------------------------------------------------
{
{acoustic
{------------------------2-2------------------------------------------
{------------------------3-3------------------------------------------
{------------------------2-2------------------------------------------
{------------------------0-0------------------------------------------
{-----3-----2-----0---------------------------------------------------
{---------------------------------------------------------------------
 
This is RHYTHYM FIGURE [1]
REPEAT THIS PART TWO TIMES:
{clean electric
{--2---0-2--3-0--2-2-2--------3-3-2--
{------------------------------------
{------------------------------------
{------------------------------------
{------------------------------------
{------------------------------------
{acoustic
{  D   A   G G   A      A G   G G D
{--10--9---7-7---5------5-3---3-3-2--
{--10--10--8-8---5------5-3---3-3-3--
{--11--9---7-7---6------6-4---4-4-2--
{------------------------------------
{------------------------------------
{------------------------------------
 
heavily-distorted guitar cuts in:
  A A A G G D D  D D   G G D D  D                 D D
--5-5-5-3-3-2-2--2-2---3-3-2-2--2-----------------2-2-----------------
--5-5-5-3-3-3-3--3-3---0-0-3-3--3-----------------3-3-----------------
--6-6-6-4-4-2-2--2-2---0-0-2-2--2-----------------2-2-----------------
--7-7-7-5-5-0-0--0-0---0-0-0-0--0-----------------0-0-----------------
--7-7-7-5-5------------2-2--------0-2-3---2---0-----------------------
--5-5-5-3-3------------3-3--------------------------------------------
and then electric out
 
*****************
acoustic:
 
 1.Two boys on a playground      Tryin' to push each   other down
 2.Movin' backwards through time Never learned         never mind
 3.Keeps the kids off the streets, givesEMsomethingTOdo,somethingTOeat
 
----2---0---2--3--0----2--2--------5--------3----3-3----3-----2--2----
-----------------------------------------------------3-------------3--
---------------------------------------------------------------------2
----------------------------------------------------------------------
----------------------------------------------------------------------
----------------------------------------------------------------------
 
 1.See the crowd gather round  Nothing attracts a crowd like a crowd
 2.That side's yours, this side's mine, brother you ain't my kind
 3.This spot was a playground, this flat land used to be a town
----2---0---2----3---0---2--2----------5----3---3----3----------2-----
----------------------------------------------------------------------
----------------------------------------------------------------------
----------------------------------------------------------------------
----------------------------------------------------------------------
----------------------------------------------------------------------
 
electric (w/ distortion):
 
         Black gold in a white mine  Won't you fill up the tank let's
2. You're a black soldier, white fight, ^               go for a ride
      3. Black gold in a white mine,    ^
 A A G G D D         A A G G D D
-5-5-3-3-5-5---------5-5-3-3-2-2--------------------------------------
-5-5-3-3-7-7---------5-5-3-3-3-3--------------------------------------
-6-6-4-4-7-7---------6-6-4-4-2-2--------------------------------------
-7-7-5-5-7-7---------7-7-5-5-0-0--------------------------------------
-7-7-5-5-5-5---------7-7-5-5------0-2-3---2-0---5-5-5\----------------
-5-5-3-3-5-5---------5-5-3-3------------------------------------------
 
  I don't care about no wheelchair, I've got so muchLEFTtoDOwithMYlife
2. Sure like to feel some pride, butTHISplaceJUSTmakesMEfeelSADinside
3. Sure like to feel some pride, butTHISplaceJUSTmakesMEfeelSADinside
----------------------------------------------------------------------
----------------------------------------------------------------------
----------------------------------------------------------------------
------------0----0------------0---------------------------------------
------0--------------------0---------0---2---3--------2---0----5--5---
--3---------------------3---------------------------------------------
 
3RD TIME THROUGH, CONTINUE WITH:
Black gold in a white fight, won't you fillUPtheTANK,let'sGOforAride
I don't care 'bout no wheelchair, I've got so muchLEFTtoDOwithMYlife
     (GUITAR PARTS AS ABOVE)
     THEN SKIP TO THE END FOR THE OUTTRO
 
   Mother, do you know where your kids are tonight?
 Acoustic:
     C            Em                         D
{----0----3-0-----0----3-0-------------------5-5-5-------------
{----1--1-----1---0--0-----0-----------------7-7-7---3-2-3-2---
{----0------------0--------------------------7-7-7-------------
{----2------------2--------------------------7-7-7-------------
{----3------------2--------------------------5-5-5-------------
{-----------------0--------------------------5-5-5-------------
{electric (distorted)
{    C            Em                         D
{---------------------------------------------------------------------
{---------------------------------------------------------------------
{----0----------------------------------------------------------------
{----2------------2--------------------------0------------------------
{----3------------2--------------------------0-0-0-0-0-0-0-0----------
{-----------------0---------------------------------------------------
 
{electric solo without distortion and with a lot of vibrato/chorus
{---------------------------------------------------------------------
{--9^-(9)R--8----etc. etc.--------------------------------------------
{---------------------------------------------------------------------
{----------------(sound effects, children playing, etc.)--------------
{---------------------------------------------------------------------
{---------------------------------------------------------------------
{acoustic guitar repeats this throughout solo:
{--------------------------------
{--2--4--5----5-4---5--4H5-4-2---
{--------------------------------
{--------------------------------
{--------------------------------
{--------------------------------
 
Repeat RHYTHYM FIGURE [1] twice, then go to sing verse 3
 
 
OUTTRO:  *********************
 
Electric: C   | Em   |   AAAA AAAA AAAA AAAA
Acoustic: C CC CCC | Em EmEm EmEmEm | AAAA AAAA AAAA AAAA
 
 
{--2---0-2--3-0--2-2-2--------3-3-2-------
{-----------------------------------------
{-----------------------------------------
{-----------------------------------------
{-----------------------------------------
{-----------------------------------------
{acoustic
{  D   A   G G   A      A G       D (let ring)
{--10--9---7-7---5------5-3-2H3P2-2-------
{--10--10--8-8---5------5-3-------3-------
{--11--9---7-7---6------6-4-------2-------
{-----------------------------------------
{-----------------------------------------
{-----------------------------------------
 
 
There you have it!  Sorry if it's confusing but except for the solo
(which involves sound effects, a lot of feedback, and other fun stuff
that you really can't reproduce in ASCII) it should be pretty close. 
Hope you enjoy it!
 
David Braue







































variations - click chord images
Transpose chords:
Tuning:
Cool service:
View: Size:
A  A  A
Rating:
Layout:
  • Currently 0/5 Stars.
  • 1
  • 2
  • 3
  • 4
  • 5
 
Accuracy:
  • Currently 2/5 Stars.
  • 1
  • 2
  • 3
  • 4
  • 5
 
click stars to rate
Chordie recommends:
Learn to play guitar with video-based, online guitar lessons at JamPlay.com
Songbook:
Login to add this song to your songbook
Support the artist
Preview/buy this song
MSN Music
Why this non-profit ad?

 
login to add comments/video/corrections