Guitar Tabs, Chords and Lyrics


art school girlfriend   Stone Temple Pilots









Date: Thu, 04 Jul 1996 19:29:08 +0000
From: Josh & Crystal 




Art School Girlfriend

------

GUITAR

------



intro/verse:

e||------------------------||

b||-11-11\9-9--9-9-9-9-9---||

g||-11-11\9-9--9-9-9-9-9--o||

d||-11-11\9-9--9-9-9-9-9--o||

a||-9---9\7-7--6-6-6/7-7---||

e||-9---9\7-7--6-6-6/7-7---||



chorus:

e||-2-|---|

b||-2-|-2-|

g||-1-|-2-|

d||-3-|-2-|

a||-3-|-0-|

e||-2-|-0-|



----

BASS

----



intro/verse:

g||-----------------------------|| 


Art School Girlfriend by the Stone Temple Pilots
from Tiny Music Songs From The Vatican Gift Shop
Transcribed by jonathan lozoya



Here's the main riff:

Throw in some palm mutes 
listen with the cd to help you out

E ---------------------------------------------------
B ---------------------------------------------------
G ---------------------------------------------------
D -/11-----11------9--9----8-8-8---9--9--------------
A -/9------9-------7--7----6-6-6---7--7--------------
E ---------------------------------------------------

If you post this elsewhere, please give me credit. THANKS
Enjoy!


-----

From: Kevin Gardner 
Date: Tue, 2 Jul 1996 14:28:05 -0400 (EDT)



Art School Girl


by Stone Temple Pilots
transcribed by Kevin Gardner code@wam.umd.edu

Intro
-----------------------  \
-----------------------  |
-11--9-9-9--9-9--9-9-9-  |
-11--9-9-9--9-9--9-9-9-  4X
-9---7-7-7--6-6--7-7-7-  |
-----------------------  /

Verse 1
-----------------------  \
-----------------------  |
-11--9-9-9--9-9--9-9-9-  |
-11--9-9-9--9-9--9-9-9-  8X
-9---7-7-7--6-6--7-7-7-  |
-----------------------  /

Chorus 1
--------------- \ -------
--------------- |  ------
--------------- |  ------
--------------- 8X ------
---4---4-4-4-7- | ---4---
-0-2-0-2-2-2-5- / -0-2-0-

Verse 2 same as verse 1
Chorus 2 same as chorus 1

Break
-5--2--------------------------------
-5--2--------------------------------
-7--4--------------------------------
-7--4--------------------------------
-5--2--4-4-4-7----4---4-4-4-7----4---
-------2-2-2-5--0-2-0-2-2-2-5--0-2-0-


-5--2-------------------------------- \
-5--2-------------------------------- |
-7--4-------------------------------- 3X
-7--4-------------------------------- |
-5--2--4-4-4-7----4---4-4-4-7----4--- |
-------2-2-2-5--0-2-0-2-2-2-5--0-2-0- /
on the thrid time payending eight times
                                       
Verse 3 same as verse 1                
Chorus 3 same as chorus 1 end on Dsus2











Important: The song above is NOT stored on the Chordie server. The original song is hosted at tabfu.thudspace.net. Chordie works as a search engine and provides on-the-fly formatting. Chordie does not index songs against artists'/composers' will. To remove this song please click here.

This song is displayed as text-only. Transposing and tuning is only available for chordpro-songs.

Login - add to songbook

Rating click stars to rate

Layout
Accuracy

SHARE PAGE  




You need to log in to post comments