Guitar Tabs, Chords and Lyrics


x-communicated   Tree











Date: Sun, 4 May 1997 23:12:07 -0400 (EDT)

To: guitar@olga.net
Subject: Tree "X-Communicated"

Tree
"X-Communicated"
Off of "Downsizing the American Dream"


Dropped-D Tuning
  --------------------------------------------------------------------------
  --------------------------------------------------------------------------
  --------------------------------------------------------------------------
  ----5----3----6---1----------------------------------------------------
  ----5----3----6---1----------------------------------------------------
  ----5----3----6---1------------2---0---2---0---2---0---0---0---2
      Intro/Ending                             verses

------------------------------------------------------------------------------
-----------------------------
------------------------------------------------------------------------------
-----------------------------
------------------------------------------------------------------------------
-----------------------------
-----5---5---5---5-------3---3---3---3---0---3-------5---5---5---5----8--8--8-
-0--0--------
-----5---5---5---5-------3---3---3---3---0---3-------5---5---5---5----8--8--8-
-0--0--------
-----5---5---5---5-------3---3---3---3---0---3-------5---5---5---5----8--8--8-
-0--0--------
                       chorus
                                            ^slide 







Important: The song above is NOT stored on the Chordie server. The original song is hosted at tabfu.thudspace.net. Chordie works as a search engine and provides on-the-fly formatting. Chordie does not index songs against artists'/composers' will. To remove this song please click here.

This song is displayed as text-only. Transposing and tuning is only available for chordpro-songs.

Login - add to songbook

Rating click stars to rate

Layout
Accuracy

SHARE PAGE  




You need to log in to post comments