"yes"; ?> twinkle by Whipping Boy - guitar chords, guitar tabs and lyrics - chordie

twinkle

Whipping Boy



From: "Tomcat -----------" 
Subject: w/whipping_boy/twinkle.crd
Date: Fri, 03 Apr 1998 02:53:05 PST

Title   : Twinkle.
Artist  : Whipping Boy.
Track  : 1
CD    : Heartworm.
----------------------------------------------------------------------

Intro: Guitar+violin

Guitar plays : F*m  G  D  F*m     F*m:   244222
       F*m  G  D  F*m       G:   355433     or    320003
               F*m  G  D       D:   -57755     of    -00232

Verse1:  No distortion,Guitar plays
e---2-2-2-2-2-2-2-2-5-5-4-2-------------------------------------
B-----------------------------3-3-3-3-3-3-3-3-5-5-3------------
G----------------------------------------------------------------
D----------------------------------------------------------------
A----------------------------------------------------------------
E----------------------------------------------------------------

Waiting to be bled
Turning tricks just like your mother
Left my dreams for dead
Making out with every other
She's the air I breathe
Not too pure for me
She's the air I breathe
Not too cheap for me...

Strofe: With distortion.  F* G   D  F*

She's the only one for me... Now and always!!
She's the only one for me... Now and always!!
She's the only one for me... Now and always!!
She's the only one for me... 

Verse2: Play the same as for verse1. No distortion

Hole right through her head
I think I might be nothing to her
Singing and now she's sad
The fuck, I might be here forever
She's the air I breathe
Not too pure for me
She's the air I breathe
Not to cheap for me

Strofe:  with distortion. End last strofe with  Bm

Bridge:   Bm D  Bm G
e-------------------------------------------------------
B-------------------------------------------------------
G-----------4-4-4-4--7-7-7-----4-4-4-4-----------  (X2)
D-----------4-4-4-4--7-7-7-----4-4-4-4--5-5-5--
A-----------2-2-2-2--5-5-5-----2-2-2-2--5-5-5--
E---------------------------------------3-3-3--

e------------------------------------------------------
B-------------------------------------------------------
G-----------4-4-4-4----------4-4-4-4-----------              (X1)
D-----------4-4-4-4--7-7-7---4-4-4-4--7-7-7--
A-----------2-2-2-2--7-7-7---2-2-2-2--7-7-7--
E--------------------5-5-5------------5-5-5--

Verse3: Same as 1+2 : No distortion.

Waiting in my head
Too clairly I can hear you moving
You talk sister fear
You're gonna' pay for all the hate I'm giving
She's the air I breathe
Not too pure for me
She's the air I breathe
Not too cheap for me

Strofe: With distortion. (X4)  End with a D


Tabbed By Dirk Geens
Any comments or corrections? Please sent them to:
tomcat666@hotmail.com



______________________________________________________
Get Your Private, Free Email at http://www.hotmail.com










































variations - click chord images
Transpose chords:
Tuning:
Cool service:
View: Size:
A  A  A
Rating:
Layout:
  • Currently 0/5 Stars.
  • 1
  • 2
  • 3
  • 4
  • 5
 
Accuracy:
  • Currently 2.9/5 Stars.
  • 1
  • 2
  • 3
  • 4
  • 5
 
click stars to rate
Chordie recommends:
Check out JamPlay.com for online video guitar lessons
Songbook:
Login to add this song to your songbook
Support the artist
Preview/buy this song
MSN Music
Why this non-profit ad?

 
login to add comments/video/corrections