Chordie logo

play that funky music     Wild Cherry









Play That Funky Music                                Transcribed by MRC
 by Wild Cherry

Main Riff                        Funky Rhythm
e-------------------|           e-9-9--9---10/11-11-10-|
b-------------------|           b-9-9--9---10/11-11-10-|
g-------------------|Repeat     g-9-9--9---10/11-11-10-|Repeat
d-------------------|           d----------------------|
a-----7-5-7-----5-7-|           a----------------------|
e-0-0-------5-7-----|           e----------------------|
  1   2   3    4                  1    2  3     4 
                                                                           
Pre-Chorus
e--------------|-------------|-------|--------------|
b--------------|-------------|-------|--------------|
g--------------|-------------|---%---|--------------|
d--------------|-------------|-------|--------------|
a-7-7--7--7--7-|--7--7--7--7-|-------|--7--7--7-----|
e-0-0--0--0--0-|--0--0--0--0-|-------|--0--0--0-1-2-|
  1   2  3  4   1  2  3  4            1  2   3  4

Chorus
e------------------|----------|-----------|--------------|
b------------------|----------|-----------|--------------|
g------------------|---%------|-----------|-9--7---7-----|
d-----5-3-5-----3-5|--4 times-|-----8-8--|------9----9-7|
a-----------3-5----|----------|-----------|--------------|
e-3-3--------------|----------|-6---------|--------------|
  1   2   3    4                1 2   3 4   1  2   3  4

e-----------------|
b-----------------|
g-----------------|  Back to
d-9-9-7-5-7-5-----|  Main Riff
a-------------7-5-|-7-
e-----------------|
  1   2   3   4

Ad lib the main riff under solo.
Move up to A for outro.








Important: The song above is NOT stored on the Chordie server. The original song is hosted at tabfu.thudspace.net. Chordie works as a search engine and provides on-the-fly formatting. Chordie does not index songs against artists/composers will. To remove this song please click here.

This song is displayed as text-only. Transposing and tuning is only available for chordpro-songs.

Rating click stars to rate

Layout
Accuracy

SHARE PAGE  

You need to log in to post comments