Guitar Tabs, Chords and Lyrics


its not true   Wonder Stuff









From: James Betts - Production Services 
Date: Mon, 20 May 1996 13:17:20 +0000


The Wonder Stuff - It's Not True.


Riff 1

   Dsus2  Cmaj    Dsus2    Cmaj
E|-0--0-0-0--0-0--0-0-0-0--0--|
B|-0--0-0-1--1-1--0-0-0-0--1--|
G|-3--3-3-0--0-0--3-3-3-3--0--|
D|-2--2-2-2--2-2--2-2-2-2--2--|
A|--------3--3-3-----------3--|
E|----------------------------|
   I saw you drowning...


Riff 2     Let chords ring.

E|---------------------------------------------------------------|
B|---------------------------------------------------------------|
G|---------------------------------------------------------------|
D|------------7--------------------------------5-----------------|
A|------------7--------------------------------5-----------------|
E|------------5--------------------------------3-----------------|
   You know I think I should have killed you a long, long time ago



I saw you drowning
Covered in water
You called me 'help'
But I don't know if I oughta

You know I think I should have killed you a long, long time ago
You know I think I should have killed you, but I guess I'll never ever know

We were just lovers
With crossed wires
We were both lovers
But we were both liars

You know I think I should have killed you a long, long time ago
You know I think I should have killed you, but I guess I'll never ever know

It's not true what they say about us
It's not true what they say about us no way



You'll have to listen to the record to get the timing of riff 1 right
and when to change between the two riffs, but it is well worth it!

Comments, corrections etc... jimmyb@dudley.gov.uk
--=====================_832623811==_
Content-Type: text/plain; charset="us-ascii"
Content-Disposition: attachment; filename="SONG_WIT.TAB"

The Wonder Stuff - A Song Without An End.



Riff 1 
                               *****                               *****
E|0000000000000000000000000000000000--0000000000000000000000000000000000-|
B|0000000000000000000000000000000000--0000000000000000000000000000000000-|
G|4444444444444444444444444444444444--2221222122212221222122212221222222-|
D|4444444444444444444444444444444444--2222222222222222222222222222222222-|
A|-----------------------------------------------------------------------|
E|-----------------------------------------------------------------------|

* Alternate up and down strums - all other strums downward. 



Riff 2

E|-2200----2200----2200----2200---220-00-----------220-00---------------|
B|-----2200----2200----2200----220------3-332-220--------3-332-220--0---|
G|----------------------------------------------------------------------|
D|----------------------------------------------------------------------|
A|----------------------------------------------------------------------|
E|----------------------------------------------------------------------|



Riff 3 (Keyboard)

E|--------------------------------------------------------------------|
B|--------------------------------------------------------------------|
G|--------------------------------------------------------------------|
D|--------------------------------------------------------------------|
A|-2-4-6-4---2-2-4-6-4---2-2-4-6-4---2-2-4-6-4---2-0-4------2-0-4---0-|
E|-----------------------------------------------------2---------2----|




Riff 1

Take a trip through your veins
Ride the scarlet train
Check the track 
There's no looking back

Riff 2

Riff1

So get a ticket for the train
Ride that scarlet train
Check the track
There's no looking back

Riff2

Riff 1 + Riff 3  Until finish



Riff 3 sounds ok, but i don't quite know if the notes themselves are right.

ENJOY!

Comments, corrections etc.....jimmyb@dudley.gov.uk

--=====================_832623811==_
Content-Type: text/plain; charset="us-ascii"


--=====================_832623811==_--









Important: The song above is NOT stored on the Chordie server. The original song is hosted at tabfu.thudspace.net. Chordie works as a search engine and provides on-the-fly formatting. Chordie does not index songs against artists'/composers' will. To remove this song please click here.

This song is displayed as text-only. Transposing and tuning is only available for chordpro-songs.

Login - add to songbook

Rating click stars to rate

Layout
Accuracy

SHARE PAGE  




You need to log in to post comments