Chordie logo


   Various Artists


----------------------------------------------------------------------------
			                                TV Dinners - ZZ Top
----------------------------------------------------------------------------
Tabbed by:  SchecterMan71
Email:  pennyankee32@msn.com

Tuning:  Standard

* Great song, very easy to play ... on the powerchords, I play/mute the "D" note 
between the D5 powerchords and do the same for the "B" note in between the B5 powerchord 
this gives the song a "full" effect if you dont have a bass playing *

e|----------------------------------------|
B|----------------------------------------|
G|---77-7---77-7---77-7---77-7---77-7-----|
D|---77-7---77-7---77-7---77-7---77-7-----|
A|---55-5---55-5---55-5---55-5---55-5-----|
E|----------------------------------------|

  TV dinners there's nothin' else to eat
  TV dinners they really can't be beat

e-----------------------------------------|
B-----------------------------------------|
G-----------------------------------------|
D---99-9---99-9---99-9---99-9---99-9------|
A---99-9---99-9---99-9---99-9---99-9------|
E---77-7---77-7---77-7---77-7---77-7------|

  I like 'em frozen but you understand
  I throw 'em in and wave 'em and I'm a brand new man oh yeah!

e|----------------------------------------|
B|----------------------------------------|
G|---77-7---77-7---77-7---77-7---77-7-----|
D|---77-7---77-7---77-7---77-7---77-7-----|
A|---55-5---55-5---55-5---55-5---55-5-----|
E|----------------------------------------|

e|----------------------------------------|
B|----------------------------------------|
G|---77-7---77-7---77-7---77-7---77-7-----|
D|---77-7---77-7---77-7---77-7---77-7-----|
A|---55-5---55-5---55-5---55-5---55-5-----|
E|----------------------------------------|

TV dinners they're goin' to my head
TV dinners my skin is turnin' red

e-----------------------------------------|
B-----------------------------------------|
G-----------------------------------------|
D---99-9---99-9---99-9---99-9---99-9------|
A---99-9---99-9---99-9---99-9---99-9------|
E---77-7---77-7---77-7---77-7---77-7------|

Twenty year old turkey in a thirty year old tin
I can't wait until tomorrow.... and thaw one out again oh yeah!

e|----------------------------------------|
B|----------------------------------------|
G|---77-7---77-7---77-7---7---------------|
D|---77-7---77-7---77-7---7---------------|
A|---55-5---55-5---55-5---5---------------|
E|----------------------------------------|


Bridge			  (16x during Solo)
e|---------------------|------------------|
B|---------------------|------------------|
G|---------------------|---77-7---77-7----|
D|---3h5-3-------------|---77-7---77-7----|
A|---------3h5-3-------|---55-5---55-5----|
E|---------------5-3---|------------------|


e|----------------------------------------|
B|----------------------------------------|
G|---77-7---77-7---77-7---77-7---77-7-----|
D|---77-7---77-7---77-7---77-7---77-7-----|
A|---55-5---55-5---55-5---55-5---55-5-----|
E|----------------------------------------|

TV dinners I'm feelin' kinda rough
TV dinners this one's kinda tough

e-----------------------------------------|
B-----------------------------------------|
G-----------------------------------------|
D---99-9---99-9---99-9---99-9---99-9------|
A---99-9---99-9---99-9---99-9---99-9------|
E---77-7---77-7---77-7---77-7---77-7------|

I like the enchiladas and the teriyaki too
I even like the chicken if the sauce is not too blue

Bridge			  (10x during Solo)
e|---------------------|------------------|
B|---------------------|------------------|
G|---------------------|---77-7---77-7----|
D|---3h5-3-------------|---77-7---77-7----|
A|---------3h5-3-------|---55-5---55-5----|
E|---------------5-3---|------------------|

               (4x)
e|----------------------------------------|
B|----------------------------------------|
G|-------------77-7-----------------------|
D|---12-10-7---77-7-----------------------|
A|---10-8--5---55-5-----------------------|
E|----------------------------------------|

  (Play to the end)
e|----------------------------------------|
B|----------------------------------------|
G|---77-7---77-7---77-7---77-7---77-7-----|
D|---77-7---77-7---77-7---77-7---77-7-----|
A|---55-5---55-5---55-5---55-5---55-5-----|
E|----------------------------------------|

| /  slide up
|   slide down
| h  hammer-on
| p  pull-off
| ~  vibrato
| +  harmonic
| x  Mute note


Important: The song above is NOT stored on the Chordie server. The original song is hosted at ultimate-guitar.com. Chordie works as a search engine and provides on-the-fly formatting. Chordie does not index songs against artists/composers will. To remove this song please click here.

This song is displayed as text-only. Transposing and tuning is only available for chordpro-songs.

Login - add to songbook

Rating click stars to rate

Layout
Accuracy

SHARE PAGE  




You need to log in to post comments

kpa6stringer (report)

I drop tune my E to a D to get a low open D on the rythem, it also sounds good on the break riffs.