Imaginary Lover

Atlanta Rhythm Section

 AmFFmaj7E7C6DE
E--------1-------------------3-----2-------------

B---1----1-----1-------------1-----3-------------
G---2----2-----2-------1-----2-----2-----1-------
D---2----3-----3-------------2-----------2-------
A----------------------2-----------------2-------
E------------------------------------------------

Intro:

 Am
E-----------------------------------------------

B-----------------------------------------------
G---2----4----5----4----2-----------------------
D--------5----7----5----5-----------------------
A-----------------------------0-----------------
E----------------------------------3----1-------

 F
E-----------------------------------------------

B-----------------------------------------------
G-----2------4------5------2--------------------
D-----3------5------7------3--------------------
A-----------------------------------------------
E---------------------------------1----0--------

 AmFmaj7
Imaginary lovers never turn you down

 Am
When all the others turn you away

 E7
They're around
         E---------------

B----0--1--3----
G---------------
D----0--2--3----
A---------------
E-0------------0

 AmFmaj7
 It's my private pleasure midnight fantasy

 Am7E7
 Someone to share my wildest dreams with me

 AmC6D
Imaginary lover           you're mine anytime
             A---0--2---3


 FEAmC6DFmaj7Fmaj7
 Imaginary lover     oh yeah anytime       
 A--2--3
                                   

 AmFmaj7
When ordinary lovers don't feel what you feel

 Am7E7
And real life situations lose their thrill

 AmC6Am
Imagination's unreal        imaginary lover
                  A--0--2--3


 FEAmC6D
 Imaginary lover     you're mine anytime
 A--2--3
                                   

Interlude: (Play Twice)

 Am
                                                    
E------------------------------------------------

B--1--1----1---------------1---------------------
G--2--2--------2---0-----------2-----0---2-------
D--2--2----------------2-------------------------
A------------------------------------------------
E------------------------------------------------

2nd time just to here>>>>Then below
 Fmaj7
                                                   
E------------------------------------------------

B--1-------1-----------------1-------------------
G------2-------2---0--------------2---0----------
D------------------------3----------------2------
A------------------------------------------------
E------------------------------------------------
E------------------------------------------------
B---3---------------------1---------1------------
G---------2-----0-----2--------2---------2----0--
D------------------------------------------------
A------------------------------------------------
E------------------------------------------------

2nd time from above:

Fmaj7 G Fmaj7 G Am > Intro
E--------------------------5---3---8---7---12----

B------1-----------3---1-------------------------
G----------2---0---------------------------------
D--3---------------------------------------------
A------------------------------------------------
E------------------------------------------------

 AmFmaj7
 Imaginary lovers never disagree

 Am7
 They always care they're always there

 E7Am
When you need satisfaction guaranteed

To chorus and then outro jam on intro chords/rhythm


Corrected by hophop. View original
Am Am7 C6 D E E7 F Fmaj7
variations - click chord images
Transpose chords:
Tuning:
Cool service:
View: Size:
A  A  A
Rating:
Layout:
  • Currently 3.1/5 Stars.
  • 1
  • 2
  • 3
  • 4
  • 5
 
Accuracy:
  • Currently 2.9/5 Stars.
  • 1
  • 2
  • 3
  • 4
  • 5
 
click stars to rate
Chordie recommends:
Learn to play guitar with video-based, online guitar lessons at JamPlay.com
Songbook:
Login to add this song to your songbook
Support the artist
Preview/buy this song
MSN Music
Why this non-profit ad?

 
login to add comments/video/corrections