Guitar Tabs, Chords and Lyrics


A Little Gasoline  Terri Clark

-----------------------------------------2-0-2-------------
-----------------------------------------3-3-3-------------
----2-2----------------------------------2-2-2-------------
-/4-----4-2-0-2-4--2-0--------4-2-0---0--0-0-0-------------
-----------------------4-2-2--------4------------------------
-------------------------------------------------------------


T[A]hrowing pictures out the window
S[G]cattered by the w[D]ay the wind blows
A G (riff #1)
Bye, bye baby, that's the last I'll see of you
S[A]hoebox full of old love letters
I'll t[G]ear each one till I[D]'ll feel better
G A (riff #2)
And I won't look back, cause I don't like the view

CHORUS
W[D]hat my heart needs n[A]ow is r[D]est
So I'm p[G]ackin' up and I'm headed west
D A G (riff #2)
My minds made up, I'll put it to the test
P[D]ushing myself and this o[A]ld mac[D]hine
B[G]urning fumes and what's left of my dreams
D A Bm (riff #3)
Let 'em go, cause I don't need no strings
Ju[A]st gi[G]ve me a road and a l[A]ittle gaso[D]line

REPEAT INTRO

We ta[A]lked in circles 'til the words ran out
G D (riff #4)
and it all came down to an angry shout
A G (riff #5)
Before I knew it, I was in third gear and gone
Well th[A]is had been coming for a long, long time
G D (riff #4)
If I said I'm sorry, well I'd be lying
G A (riff #6)
If you think I'll never make it, well you'd be wrong

CHORUS
GUITAR SOLO
-----------------------------------------0------------------------------
-----10--10-------------------------7/-7---3--3-2-0---------------------
-/11---11---(9)/11-9-7-9-(9)/11-9-7-----------------2-0-----------------
--------------------------------------------------------4-2-0-----0-2-0-
--------------------------------------------------------------0-2-------
------------------------------------------------------------------------
---------------------------------------------------------------------12
------------------------10-10-10--------------------14-12-14/-12-14/---
-------7---7-7-7------9--9/11--9---9-7-9--12-10-12--14-12-14/-12-14/---
-------7---7-9-7-9/11--------------9-7-9--12-10-12--14-12-14/-12-14/---
-5-7/9---9-------------------------------------------------------------
-----------------------------------------------------------------------


CHORUS
W[D]hat my heart needs [A]now is r[D]est
So I'm p[G]ackin' up and I'm headed west
D A G (riff #7)
My minds made up, I'll put it to the test
P[D]ushing myself and this o[A]ld mac[D]hine
B[G]urning fumes and what's left of my dreams
D A Bm (riff #3)
Let 'em go, cause I don't need no strings
Ju[A]st gi[G]ve me a road and a l[A]ittle gaso[D]line  [D/F#]       [G]
Just g[Bm]ive me a road and a l[A]ittle gaso[D]line

INTRO
END


RIFFS FOR VERSES
Riff #1 Riff #2 Riff #3 Riff #4 Riff #5 Riff #6
---------|--------|-------------|---------|---------|-------------
---------|--------|-------------|---------|---------|-------------
---------|--------|-------------|---------|---------|-2-----------
-4-----0-|------0-|-------------|---------|-4-2-0---|-2/4-2-------
---0-2---|--0-2---|-(0)/2-0-----|-------0-|-------2-|-------4-2-0-
---------|--------|---------4-2-|-0-2-4---|---------|-------------



Riff #7 A
----------------|---
----------------|---
-0----------2---|---
---4-2-0-2--2---|---
------------0---|---
----------------|---



Important: The song above is NOT stored on the Chordie server. The original song is hosted at www.allcountrytabs.com. Chordie works as a search engine and provides on-the-fly formatting. Chordie does not index songs against artists'/composers' will. To remove this song please click here.

Text color:
Chord color:
Chord grids: 
Font size:    
Page size: 

A Bm D D/F# G
variations - click chord images

Login - add to songbook

Transpose chords

Tuning

Rating click stars to rate

Layout
Accuracy

SHARE PAGE  




You need to log in to post comments