Chordie logo

Some Gave All 2   Billy Ray Cyrus



Gtr I (E A D G) - 'Bass'

  Intro
   Moderate Country Q=120
  4/4
   Gtr I
||---------12-11-9----------------------------------||
||------------------9------9---10----9---12---------||
||--------------------7--7---7-----7---7----9-------||
||--------------------------------------------10----||


   Verse
   4/4
||----------|------------|---------|------------|
||o---------|------------|---------|------------|
||o---------|------------|---------|---7--------|
||--3-------|-3-3--3-----|-0-------|-0----0-----|


|---------|------------|---------|--------------||
|---------|------------|---------|-------------o||
|-3-------|-3-3--3-----|-5-------|-5-5--5------o||
|---------|------------|---------|--------------||


  Chorus
||---------------|-----------|----------------------------7-|
||---------------|-----------|------------------------4-7---|
||-3-3-5-5-------|-3--3-3-3--|-5--5-5-5--5--------5-7-------|
||---------3-1-0-|-----------|------------------------------|


|----------|-----------|---------------------|
|----------|-----------|---------------------|
|----------|-----------|-5----5----5-5--5----|
|-3----3---|-/5----5---|---------------------|


|-----------|------------|----------------|
|-----------|------------|---9-7-5--------|
|-----------|------------|---------7-5----|
|-3----3----|-/5----5----|-5--------------|


|-----------|-----------|------------|----------|
|-----------|-----------|------------|----------|
|-3----3----|-5----5----|------------|-3--------|
|-----------|-----------|-3--1--0----|----------|


|------------|--------------------|-----------|---------7----||
|------------|--------------------|-----------|-----4-7------||
|-3-3--3-----|-5--------5-5--5----|--5--------|-5-7----------||
|------------|--------------------|-----------|--------------||


  Solo
||----------|------------|----------|------------|
||----------|------------|----------|------------|
||----------|------------|----------|---7--------|
||-3--------|-3-3--3-----|-0--------|-0----0-----|


|----------|------------|----------|---------7--||
|----------|------------|----------|-----4-7----||
|-3--------|-3-3--3-----|-5--------|-5-7--------||
|----------|------------|----------|------------||




Important: The song above is NOT stored on the Chordie server. The original song is hosted at www.allcountrytabs.com. Chordie works as a search engine and provides on-the-fly formatting. Chordie does not index songs against artists/composers will. To remove this song please click here.

This song is displayed as text-only. Transposing and tuning is only available for chordpro-songs.

Login - add to songbook

Rating click stars to rate

Layout
Accuracy

SHARE PAGE  

You need to log in to post comments