"yes"; ?> Christmas For Cowboys by John Denver - guitar chords, guitar tabs and lyrics - chordie

Christmas For Cowboys

John Denver

 Fmaj7CGAm
--------0----------------------------------------------
--1---------1---------0----1----3----1-----------------
--2----------------0--0----0----0-----------2----------
--3------------2-------------------------2-------------
------------3------------------------0-----------------
----------------------3--------------------------------


 FCGC
----------3--------------------0-----------------------
---1----------1-------------0------3---------1---------
------2-------------0----2-----------2-h-0-------------
---3-------------2------------------------------0--2---
--------------3------------------------------3---------
-------------------------3-----------------------------


Verse
 Fmaj7CGE7/G#Am
--------0-----------------------------------------------
--1--------1---------0--------------1-------------------
-----2-----------0------------------------2-------------
--3-----------2---------0--------------2----------------
-----------3------------------------0-------------------
---------------------3--------4-------------------------


 Fmaj7CGAm
--------0----------------------------------------------
--1---------1---------0----1----3----1-----------------
--2----------------0--0----0----0-----------2----------
--3------------2-------------------------2-------------
------------3------------------------0-----------------
----------------------3--------------------------------


Instrumentaal tussenstuk
 FCGC
----------3--------------------0-----------------------
---1----------1-------------0------3---------1---------
------2-------------0----2-----------2-h-0-------------
---3-------------2------------------------------0--2---
--------------3------------------------------3---------
-------------------------3-----------------------------


Tusenstukje
 Fmaj7CGAm
--------0---------------0---1--------------------------
--1---------1--------3----------1----------------------
-----2-----------0---0----------------2----------------
--3-----------2--------------------2-------------------
------------3-------------------0----------------------
---------------------3---------------------------------


 FCGC
----------3--------------------0-----------------------
---1----------1-------------0------3---------1---------
------2-------------0----2-----------2-h-0-------------
---3-------------2------------------------------0--2---
--------------3------------------------------3---------
-------------------------3-----------------------------


 Fmaj7CGAm
--------0----------------------------------------------
--1---------1---------0----1----3----1-----------------
--2----------------0--0----0----0-----------2----------
--3------------2-------------------------2-------------
------------3------------------------0-----------------
----------------------3--------------------------------


Outro

 Fmaj7CGC
-------0-------------------------0----3-------3---------
-1---------------1------------0---------------1---------
----2-----2-h-0--------0---2------------------0--------
-3------------------2-------------------------2---------
-----------------3----------------------------3---------
---------------------------3---------------------------


Christmas For Cowboys
 Fmaj7CE7/G#Am
 Tall in the saddle we spend Christmas Day
 Famj7CGC
 Drivin' the cattle on the snow covered-plains.
 Famj7CE7/G#Am
 All of the good gifts given today,
 Famj7CGC
 Ours is the sky and the wide open range.

Back in the city they have diff'rent ways,
Football and eggnog and Christmas parades.
I'll take the blanket, I'll take the reins,
Christmas for cowboys and wide open plains.

A campfire for warmth as we stop for the night,
The stars overhead are the Christmas tree lights.
The wind sings a hymn as we bow down to pray,
It's Christmas for cowboys and wide open plains.

It's tall in the saddle we spend Christmas Day,
Drivin' the cattle on the snow-covered plains.
So many gifts have been opened today,
Ours is the sky and the wide open range.
It's Christmas for cowboys and wide open plains.


Am C E7/G# F Fmaj Fmaj7 G
variations - click chord images
Transpose chords:
Tuning:
Cool service:
View: Size:
A  A  A
Rating:
Layout:
  • Currently 2.6/5 Stars.
  • 1
  • 2
  • 3
  • 4
  • 5
 
Accuracy:
  • Currently 3.2/5 Stars.
  • 1
  • 2
  • 3
  • 4
  • 5
 
click stars to rate
Chordie recommends:
Learn to play songs at Jamplay.com with video guitar lessons
Songbook:
Login to add this song to your songbook
Support the artist
Preview/buy this song
MSN Music
Why this non-profit ad?

 
login to add comments/video/corrections