Guitar Tabs, Chords and Lyrics


A Hundred And Ten In The Shade   John Fogerty



Intro:                                         1.
E|--------------------------|-------------------|-----------|
H|-----1---1s3s2s3--1s3s2s3-|-1-----------------|-----3--3--|
G|.1s2---2------------------|---2p0-2p0--0------|---2------.|
D|.-------------------------|--------------3p0--|-0--------.|
A|--------------------------|-------------------|-----------|
E|--------------------------|-------------------|-----------|

  2.
E|-----------------|
H|-----3--3----1s3-|
G|---2-------------|
D|-0---------------|
A|-----------------|
E|-----------------|

Verse: 1
| D | D | Am7 | D | D | D | C | D |

Pre-Chorus:
| G | Bb | D A | D |

Chorus:
| D G | D | D A | D |

Verse: 2
| D | D | Am7 | D | D | D | C | D |

Pre-Chorus:
| G | Bb | D A | D |

Chorus:
|: D G | D | D A | D :|

Bridge:
Same as "Intro", but play only once (use 2nd goal).

Verse: 3
| D | D | Am7 | D | D | D | C | D |

Pre-Chorus:
| G | Bb | D A | D |

Chorus:
|: D G | D | D A | D :| Play till fade



Important: The song above is NOT stored on the Chordie server. The original song is hosted at www.allcountrytabs.com. Chordie works as a search engine and provides on-the-fly formatting. Chordie does not index songs against artists/composers will. To remove this song please click here.

This song is displayed as text-only. Transposing and tuning is only available for chordpro-songs.

Login - add to songbook

Rating click stars to rate

Layout
Accuracy

SHARE PAGE  




You need to log in to post comments