Chordie logo


Suzie Q   John Fogerty



intro(clean)
e---------------------------------
b-----3---------------------------
g--------2p0----------------------
d-------------0h2-2-----0h2-------
a-------------------0h2-----------
E--0-------------------------3p0--

e-------------------------------------------------
b------------3----------------------3-------------
g--------------2p0--------------------2p0---------
d------------------0h2--------------------0h2-----
a-------------------------------------------------
E-------------------------------------------------
  oh suzie Q             oh suzie Q              

and so on....

than the first solo:
e-------------------------------------------------
b-------------------------------------------------
g--b10-------b10-b10-b10---------------9-b10------
d------9--12--------------9h12-9--9-12-------9h12-
a-------------------------------------------------
E-------------------------------------------------

e-------------------------------------------------
b----------b9--b9-b9------------------------------
g--------------------9/10\9-----------------------
d--9-12-9-------------------12-9------------------
a--------------------------------12-10------------
E--------------------------------------12---------

e------------------------------10-12-12-10--------
b---------------------10-12-12-------------12-10--
g----------------9-12-----------------------------
d-----------9-12----------------------------------
a-----10-12---------------------------------------
E--12---------------------------------------------

e--------------------12-12-10-----b17-b17--12-10--
b----------10-12-12-----------12------------------
g--12-9-12----------------------------------------
d-------------------------------------------------
a-------------------------------------------------
E-------------------------------------------------

e-------------------------10----------------------
b---12----b11-b11-b11-b11----11-10----------------
g------12---------------------------12-9----9-----
d----------------------------------------12-------
a-------------------------------------------------
E-------------------------------------------------

e-------------------feedback(ca.10sec.)-----------
b-------------------------------------------------
g--9-9---------v9---------------------------------
d------12-9-12------------------------------------
a-------------------------------------------------
E-------------------------------------------------


second solo:
beginning like first solo, but when it goes down in the first solo, 
it goes up in the second solo, like this:
e-------------------------10-12-15-12-10----------
b----------------10-10-12----------------12-10----
g-------9-b10-10----------------------------------
d--9-12-------------------------------------------
a-------------------------------------------------
E-------------------------------------------------

                           no slide!
e----------------------------/--------------------
b----------------------------/----/12-------------
g--12-9----------------------/9-9-----9-12-9-----
d--------b12-b12-b12-b12-9-12/---------------12-9-
a----------------------------/--------------------
E----------------------------/--------------------


e--------/played 4times-than feedback,ca40 sec.---
b--------/----------------------------------------
g-----9--/----------------------------------------
d--12----/----------------------------------------
a--------/----------------------------------------
E--------/----------------------------------------



Important: The song above is NOT stored on the Chordie server. The original song is hosted at www.allcountrytabs.com. Chordie works as a search engine and provides on-the-fly formatting. Chordie does not index songs against artists/composers will. To remove this song please click here.

This song is displayed as text-only. Transposing and tuning is only available for chordpro-songs.

Login - add to songbook

Rating click stars to rate

Layout
Accuracy

SHARE PAGE  




You need to log in to post comments