"yes"; ?> It Would Be You(tab) by Gary Allan - guitar chords, guitar tabs and lyrics - chordie

It Would Be You(tab)

Gary Allan

e----------------------------------|

-----------------------------------|
---7-7-5-4h5/2----7-7-5-4h5/2------|
----------------0--------------0---|
-----------------------------------|
E----------------------------------|

 DCDG
 It's hard describing a heartache, aw cause it's a one of a kind thing.

 CDG
A serious injury, and a whole lot of endless pain.

 G/CD/B/C
If it was a storm, I'd compare it to a hurricane.

 D
Oh, it's even got a name.

CHORUS-RHYTHM AND LEAD
 GG
 If it was a drink, it would be a strong one.

 GC
 If it was a sad song, it would be a long one.

 GC
 If it was a color, it would be deep, deep, blue.

 GD
 But if we're talking about a heartache, it would be you.

BREAK BETWEEN VERSES-Lead:
e---------------|
----------------|
--7-7-5-4h5/2---|
------------0---|
----------------|
E---------------|


BREAK BETWEEN VERSES-Rhythm:
(G) (G) (C) (B-2nd string, 2nd fret) (D) (B-2nd string open)

VERSE 2-RHYTHM AND LEAD
 GC/G
If it was a full moon, it would be a total eclipse.

 GCD
If it was a tidal wave, it would sink a thousand ships.

 GCD
If it was a blizzard, it would be record-breaking cold.

 C/GD
If it was a lie, then it'd be the biggest story you've ever told.

REPEAT CHORUS-RHYTHM AND LEAD

SOLO-Lead:

*This song has a ton of tricky pulls, listen to it to get it down*

*Pay attention
here*
e----------------------------------10---10^-8----------12---15-|
----6/8-8-10^---------8-10^--------------------8---------------|
----------------7-7----------8-10^----10----------9--12--15----|
---------------------------------------------------------------|
---------------------------------------------------------------|
E--------------------------------------------------------------|


LAST HALF OF CHORUS-RHYTHM AND LEAD
 GAmG/BC
If it was a color, it would be deep, deep, blue_______

 Am
But if we're talking about a heartache,

 DG
 It would be you.

ENDING-Lead:
e---------------|
----------------|
--7-7-5-4h5/2---|
------------0---|
----------------|
E---------------|


ENDING-Rhythm:
(G) (G) (C) (B-2nd string, 2nd fret) (D) (B-2nd string open)
End song with (G).


Am C C/G D G G/B G/C
variations - click chord images
Transpose chords:
Tuning:
Cool service:
View: Size:
A  A  A
Rating:
Layout:
  • Currently 2.8/5 Stars.
  • 1
  • 2
  • 3
  • 4
  • 5
 
Accuracy:
  • Currently 2.6/5 Stars.
  • 1
  • 2
  • 3
  • 4
  • 5
 
click stars to rate
Chordie recommends:
Learn how to play guitar at JamPlay.com
Songbook:
Login to add this song to your songbook
Support the artist
Preview/buy this song
MSN Music
Why this non-profit ad?

 
login to add comments/video/corrections