""; ?> Skinny Legs by Lyle Lovett - guitar chords, guitar tabs and lyrics - chordie

Skinny Legs

Lyle Lovett

 GCsus2GCG
E---||--------------------|--------------------------|------------------
B---||-----0-----3--------|-----1-----------0--------|------------------
G---||-----------------0--|-----------0-----------0--|-----0------------
D---||--------0-----0-----|--------0-----------0-----|-----2p0-----0----
A---||--------------------|--3-----------------------|--3---------------
E---||--3--------3--------|--------------3-----------|----------3-------


 A7sus4/F#G
E------|---------------------------||-----------------------------------
B------|-----3-----------0---------||-----------------------------------
G---0--|-----------0-----------0--*||-----------------------------------
D------|--------0-----------0-----*||-----------------------------------
A------|---------------------------||-----------------------------------
E------|--2-----------3------------||-----------------------------------
----------                ----------                ----t---
----5h8--- Hammeron       ----(8)--- Ghost          ----6--- Tap
----------                ---------- Note           --------
----5p8--- Pulloff        ----------                --------


Skinny Legs

 GCsus2
 See that boy with that guitar
 GCGA7sus4/F#G
 He's got skinny legs like I always wanted
 GCsus2
girlfriend in his car 'cause
 GCGA7sus4/F#G
He's got skinny legs like I always wanted
 Csus2
Now sister look at me again
 GCGA7sus4/F#G
 Well you'd love me if I were as skinny as him

And see that boy with that guitar
He's got a shirt and tie like I always wanted
A girlfriend in his car 'cause
He's got a shirt and tie like I always wanted
Now sister look at me again
Well you'd love me if I were a dresser like him

See that boy with that guitar
He's got a blue Toyota like I always wanted
A Japanese girl in his car
It's a blue Toyota like I always wanted
Now sister look at me again
Well you'd love me if I were a driver like him

See that boy with that guitar
He's got a baby face like I always wanted
A girlfriend in his car 'cause
He's got a baby face like I always wanted
Now sister look at me again
Well you'd love me if I were a looker like him

And see that boy with that guitar
He's got a little round . . . like I always wanted
A girlfriend in his car 'cause
He's got a little round . . . like I always wanted
Now sister look at me again
Well you'd love me if I had an . . . like him
 GCGA7sus4/F#G
You'd love me if that were my rear end

 GCG
But legs they come and faces go
 CA7sus4/F#G
Just like old Toyotas
 GCsus2
The Jap girl dumped my ass and stole my clothes
 GCGA7sus4/F#G
 She took my car and left me singing

 GCsus2
 See that boy with that guitar
 GCGA7sus4/F#G
 He's got skinny legs like I always wanted
 GCsus2
girlfriend in his car 'cause
 GCGA7sus4/F#G
He's got skinny legs like I always wanted

James
Editor
The Gospel Music Archive
http://subnet.virtual-pc.com/da567664/


C Csus2 G
variations - click chord images
Transpose chords:
Tuning:
Cool service:
View: Size:
A  A  A
Rating:
Layout:
  • Currently 3.5/5 Stars.
  • 1
  • 2
  • 3
  • 4
  • 5
 
Accuracy:
  • Currently 2.8/5 Stars.
  • 1
  • 2
  • 3
  • 4
  • 5
 
click stars to rate
Chordie recommends:
Check out JamPlay.com for online video guitar lessons
Songbook:
Login to add this song to your songbook
Support the artist
Preview/buy this song
MSN Music
Why this non-profit ad?

 
login to add comments/video/corrections