Guitar Tabs, Chords and Lyrics


Twenty-one (intro)   Corey Smith



capo 2nd

E----0h2p0---0------2---2---------------------------3------------0----------|
B-----------------3-------3------3--2-----0------------0----0h3-------2-3---|
G--------------------------------------------0------------------------------|
D--0------------------------------------------------------------------------|
A--------------4------2-------0-------------------------------------0-------|
E---------------------------------------3---------2-------0-----------------|

E----0h2p0---0------2---2---------------------------------------------------|
B-----------------3-------3------3--2-----0-----------------------2h3-------|
G--------------------------------------------0----------0-------2-----------|
D--0-------------------------------------------------0--------2-------------|
A--------------4------2-------0------------------0h2--------0---------------|
E---------------------------------------3-----------------------------------|



Important: The song above is NOT stored on the Chordie server. The original song is hosted at www.allcountrytabs.com. Chordie works as a search engine and provides on-the-fly formatting. Chordie does not index songs against artists'/composers' will. To remove this song please click here.

This song is displayed as text-only. Transposing and tuning is only available for chordpro-songs.

Login - add to songbook

Rating click stars to rate

Layout
Accuracy

SHARE PAGE  




You need to log in to post comments