Bm
e-------2-----2-----2-----------2-----2-----2-----------2-----2-----2-----e
b---3-----3-----3-----3-----3-----3-----3-----3-----3-----3-----3-----3---b
g-----4-----4-----4-----------4-----4-----4-----------4-----4-----4-------g
d-4-----------------------4-----------------------4-----------------------d
a-------------------------------------------------------------------------a
E-------------------------------------------------------------------------E


 Dsus2
e-------2-----2-----2------------0---------e
b---3-----3-----3-----3--------3---3-------b
g-----4-----4-----4----------2-------2-----g
d-4-----------------------0-------------0--d
a------------------------------------------a
E------------------------------------------E


-m :o)

Date: 10/31/01; 10:31:15 PM

From: MonacoShawneeNDN@aol.com

Subject: George Strait - Run

Here are the chords for George Strait's song Run.

Please send any corrections to: MonacoShawneeNDN@aol.com

Thanks!George Strait

Run

Intro:

 EmGEmDsus2
Verse:

 GABmA/C#
If there's a plane of a bus leaving dallas

 GABmA/C#
I hope you're on it

 GABmA/C#
Yeah there's a train moving fast down the tracks

 GABmA/C#
I hope you caught it

Cos I swear out there ain't where you oughta be

So catch a ride, catch a cab

Don't you know i miss you bad

But don't you walk to me

Chorus:

 BmGADsus2Dsus2/C#
Baby run___, cut a path across the blue skies

 BmGDsus2A
Strait in a strait line, you can't get here fast enough

 BmGADsus2
Find a truck and fire it up, lean on the gas and off the clutch

 Dsus2/C#BmA/C#GA
Leave dallas in the dust, i need you in a rush

 EmGEmDsus2
So baby run...

Verse:

If you ain't got a suitcase, get a box

Or an old brown paper sack

Pack it light or pack it heavy

Take a truck, take a chevy

Baby just come back

There's a shortcut to the highway outta town

Why don't you take it

Don't let that speed limit slow you down

Go on and break it

Chorus:

And Baby run, cut a path across the blue skies

Strait in a strait line, you can't get here fast enough

Find a truck and fire it up, lean on the gas and off the clutch

Leave dallas in the dust, I need you in a rush

G->

So baby run...

Music Interlude:

-> A Bm A/C# G A Bm A/C#

Outro:

Em G (until fade out)

Baby run...

Oh baby run...

Baby run...

--------------------


Enjoy!!!

Monaco-ShawneeNDN@aol.com


A A/C# Bm Dsus2 Dsus2/C# Em G
variations - click chord images
Transpose chords:
Tuning:
Cool service:
View: Size:
A  A  A
Rating:
Layout:
  • Currently 2.7/5 Stars.
  • 1
  • 2
  • 3
  • 4
  • 5
 
Accuracy:
  • Currently 2.5/5 Stars.
  • 1
  • 2
  • 3
  • 4
  • 5
 
click stars to rate
Chordie recommends:
Learn to play this song & others via video guitar lessons at JamPlay.com
Songbook:
Login to add this song to your songbook
Support the artist
Preview/buy this song
MSN Music
Why this non-profit ad?

 
login to add comments/video/corrections