eToCache5 = ""; ?> Rapid Roy v1 by Jim Croce - guitar chords, guitar tabs and lyrics - chordie

Rapid Roy v1

Jim Croce

 EA7
|------9-12-12-12-12-12------9----------------|
|-9-12---12-12-12-12-12-9-12---12-12-12-12-12-|
|------------------------------12-12-12-12-12-|
|---------------------------------------------|
|---------------------------------------------|
|---------------------------------------------|


 EB7
|------9-12-12-12-12-12-12-12-9b10--------10b11r10---10---|
|-9-12---12-12-12-12-12-12-12-9b10---8-10-10b11r10-8-10-8-|
|---------------------------------------------------------|
|---------------------------------------------------------|
|---------------------------------------------------------|
|---------------------------------------------------------|

Oh

Chorus:
 EE7AE
|-------------------------------------------------------------|
|-5---5---5-3---3---5---5b7r5-3-------------------------3-5-3-|
|-------------4-----------------4-3-2---------------2h4-------|
|-------------------------------------------------------------|
|-------------------------------------------------------------|
|-------------------------------------------------------------|

Rapid Roy ...

 AEF#B
|---------------------------------3-5b7r5-3---3-3---2---2---2-------------|
|-5b7r5-3-5---5-----------------5-----------5---------------------5---3-5-|
|-------------------------------------------------------------------------|
|-------------------------------------------------------------------------|
|-------------------------------------------------------------------------|
|-------------------------------------------------------------------------
|-----------------------------3---5b7r5-3---3-------------------3-|
|-3-5---5-----------------5---------------5---5-------------5-----|
|-----------------------------------------------------------------|
|-----------------------------------------------------------------|
|-----------------------------------------------------------------|
|-----------------------------------------------------------------|

 ECm#F#BE
|-5b7r5-3---------------------7h9------------------------------------------|
|---------5-3-5-3-------3-5-------8h9--------------------------------------|
|-----------------4-2-4---------------8h9-------9-11-9-11b12r11-9----9---9-|
|-----------------------------------------10/11-------------------11-------|
|--------------------------------------------------------------------------|
|--------------------------------------------------------------------------


Verse 1:
 EE7AE
|-----7-9-12---------------------14b16r14-12----12-----------------9b10r9-7-|
|-7/9----------------------------------------14-----------------------------|
|---------------------------------------------------------------------------|
|---------------------------------------------------------------------------|
|---------------------------------------------------------------------------|
|---------------------------------------------------------------------------|

Oh Rapid Roy ...
 AEF#B
|-----7--------------------------------------------------------------|
|-7b8---8r7--5---5---------7b8---7b8-5---5-7---7---7-5---------------|
|--------------6-----6-----------------6---------------6-5-4-4-6-4-7-|
|--------------------------------------------------------------------|
|--------------------------------------------------------------------|
|--------------------------------------------------------------------|

 EE7AF#
|-------4-----------------4---4---4---4-----------3-----------------|
|-------5-7-5---5-----5---5---5---5---5-5---5---5-----5---5---5---5-|
|-6-4-6-------6---4-6-------------------------6---------------------|
|-------------------------------------------------------------------|
|-------------------------------------------------------------------|
|-------------------------------------------------------------------

 ECm#F#BE
|-7h9---------------------------------------------------|
|-----------------9-----------------5-7-7b8r7-5---5---5-|
|---------------------------------6-------------6-------|
|-------------------------------------------------------|
|-------------------------------------------------------|
|-------------------------------------------------------|


Chorus:
 EE7AE
|---------12---------------------14b16r14-12----12-----------------9b10r9-7-|
|-9-12-12-12---------------------------------14-----------------------------|
|---------------------------------------------------------------------------|
|---------------------------------------------------------------------------|
|---------------------------------------------------------------------------|
|---------------------------------------------------------------------------|

Oh Rapid Roy ...

 AEF#7B
|-------7-----------------------------------------------------------------|
|-8b9-----8b9-7---------------7b9-9r7-5---5-7---7b8---7-5-----------------|
|---------------9-6-9---6---------------6-----------------6-4---6---6b7r6-|
|-------------------------------------------------------------------------|
|-------------------------------------------------------------------------|
|-------------------------------------------------------------------------|

 EE7AF#
|---------------------------------------------3------3-|
|-----5---5---------5------5-5---5-----5---5------5----|
|-4-6-------4-6-4-6----------------6-----6-------------|
|------------------------------------------------------|
|------------------------------------------------------|
|------------------------------------------------------|

 ECm#F#BE
|----3------3---4---------------7h9--------------------------------------------|
|-5------5------5-------------------8h9----------------------------------------|
|---------------------------------------8h9---------9-11-9-11b12r11-9----9---9-|
|-------------------------------------------10/11---------------------11-------|
|------------------------------------------------------------------------------|
|------------------------------------------------------------------------------|

Solo:
 EA7
|-------------12-12-12-12-12---12-12----------------|
|-----------9-12-12-12-12-12-9-12-12-12-12-12-12-12-|
|-11---11----------------------------12-12-12-12-12-|
|---------------------------------------------------|
|---------------------------------------------------|
|---------------------------------------------------|


 EB7
|------9-12-12-12-12-12--12-12-9b10---7-9-9b10r9-|
|-9-12---12-12-12-12-12--12-12-------------------|
|------------------------------------------------|
|------------------------------------------------|
|------------------------------------------------|
|------------------------------------------------|


Verse 2:
 EE7AE
|-7-9-7---------------------------------------------------------|
|-------5---5---5-3---3---5-5b7r5-3-----------------------3-5-3-|
|-------------------4---------------4-3-2-------------2h4-------|
|---------------------------------------------------------------|
|---------------------------------------------------------------|
|---------------------------------------------------------------|

Yea Roy so cool ...
 AEF#B
|-----------------------------3-5-5b7r5-3-5-5b7-5-3-------------|
|-5b7r5-3-5---5-------------5-----------------------5-3-5-3-5-3-|
|---------------------------------------------------------------|
|---------------------------------------------------------------|
|---------------------------------------------------------------|
|---------------------------------------------------------------|

 EE7AF#
|---------------------------------------------------------------------|
|-5-3---3-5-------------5-------------------5---5---------7b8r7-5---5-|
|-----4---------------------6-4-6-6b7r6-4-6-----------------------6---|
|---------------------------------------------------------------------|
|---------------------------------------------------------------------|
|---------------------------------------------------------------------|

 ECm#F#BE
|-----------------------7h9------------------------------------------|
|-7---7b9r7-5---------------8h9--------------------------------------|
|-------------------------------8h9-------9-11-9-11b12r11-9----9---9-|
|-----------------------------------10/11-------------------11-------|
|--------------------------------------------------------------------|
|--------------------------------------------------------------------|


Chorus:
 EE7AE
|---------9-12-----------------14b16-14pb16-12----12-----------------9b10r9-7-|
|----9-12--------------------------------------14-----------------------------|
|-11--------------------------------------------------------------------------|
|-----------------------------------------------------------------------------|
|-----------------------------------------------------------------------------|
|-----------------------------------------------------------------------------|

Oh Rapid Roy ...

 AEF#7B
|-------7---------------------------------7-------------------------------|
|-8b9-----7b8r7-5---5-------5---5---7b8-----8r7---5---7---7b8-------------|
|-----------------6-----------------------------------------------6---4-6-|
|-------------------------------------------------------------------------|
|-------------------------------------------------------------------------|
|-------------------------------------------------------------------------|

 EE7AF#
|------------------------------------------------------------------|
|-------------5---5---5---5----8r7-5---5---5-------------5-7-7b8r7-|
|-4-6b7r6-4-6-------6----------------6-----------------6-----------|
|------------------------------------------------------------------|
|------------------------------------------------------------------|
|------------------------------------------------------------------|


 ECm#F#BE
|-------------------------7h9------------------------------------------|
|-------5---5---5-------------8h9--------------------------------------|
|---------6-------4-6-4-----------8h9-------9-11-9-11b12r11-9----9---9-|
|-------------------------------------10/11-------------------11-------|
|----------------------------------------------------------------------|
|----------------------------------------------------------------------|


Outro:
 EA7
|---------12-12-12-12-12------9----------------|
|-9-12-12-12-12-12-12-12-9-12---12-12-12-12-12-|
|-------------------------------12-12-12-12-12-|
|----------------------------------------------|
|----------------------------------------------|
|----------------------------------------------|


 EB7
|------9-12-12-12-12-12-12-12-9b10r9-7-9b10r9-7-9-7-|
|-9-12---12-12-12-12-12-12-12-----------------------|
|---------------------------------------------------|
|---------------------------------------------------|
|---------------------------------------------------|
|---------------------------------------------------|


 EA7EE7
|-----------------------------------------------9b10--------9b10----9b10----9b10r9--------|
|-------------8-10---8-10b12r10-8-10---8-10b11-10b11-------10b11---10b11---10b11r10-8---8-|
|-9---9---9---9--9--------------------------------------------------------------------9---|
|-----------9-----------------------------------------------------------------------------|
|-----------------------------------------------------------------------------------------|
|-----------------------------------------------------------------------------------------|


 BAEB7
|-------------------------------------------------------------------|
|-------------------------------------------------------------------|
|-9---9-9-7---7-9-7-9b11---9-7-----7---9-7------------------------7-|
|-----------9------------------9-----------9-8-7------7---7-9-7-9---|
|------------------------------------------------10-----------------|
|-------------------------------------------------------------------|


 EA7EE7
|----------------------------------------------------------10-------------------------------|
|------------8-10b12-8-10b12-10b12r10-8---8---10---10b12------10b12---8-10---10b12---10-8---|
|-9--------9----------------------------9-------------------------------------------------9-|
|-------------------------------------------------------------------------------------------|
|-------------------------------------------------------------------------------------------|
|-------------------------------------------------------------------------------------------|

 AE
|--------------------------------------------------------10---12b14r12-10----|
|-8-----------------------------------------10-12---12--------------------12-|
|---9-9-7-9-7---7---7---7-9-7---7-9-10/12------------------------------------|
|-------------9---------------9----------------------------------------------|
|----------------------------------------------------------------------------|
|----------------------------------------------------------------------------|


 BAEB7
|-10------------10---12b14---12b14---12---10------10-12-12-10-12-10------------------------------|
|------12-10-12--------------------------------12-------------------12-11---10b12---10b12r10-8---|
|----------------------------------------------------------------------------------------------9-|
|------------------------------------------------------------------------------------------------|
|------------------------------------------------------------------------------------------------|
|------------------------------------------------------------------------------------------------|


 EA7EE7
|---------------------------------------------------------------|
|-8-------------------------------------------------------------|
|-----9-7-9-7---7---9---------------9---9-7---7-----------------|
|-------------9-----------------------------9-----9---7b9r7-5---|
|-------------------------------------------------------------7-|
|---------------------------------------------------------------|


 AE
|-------------------0----------------------------------|
|-----------------8------------------------------------|
|-----------9-7-9-------10b12r10p8-10-8---8-10-8-10b12-|
|-5-7-5-7-9-----------------------------9--------------|
|------------------------------------------------------|
|------------------------------------------------------|



A A7 B B7 E E7 F# F#7
variations - click chord images
Transpose chords:
Tuning:
Cool service:
View: Size:
A  A  A
Rating:
Layout:
  • Currently 0/5 Stars.
  • 1
  • 2
  • 3
  • 4
  • 5
 
Accuracy:
  • Currently 0/5 Stars.
  • 1
  • 2
  • 3
  • 4
  • 5
 
click stars to rate
Chordie recommends:
Check out JamPlay.com for online video guitar lessons
Songbook:
Login to add this song to your songbook
Support the artist
Preview/buy this song
MSN Music
Why this non-profit ad?

 
login to add comments/video/corrections