eToCache5 = ""; ?> Whistle Stop (robin Hood Theme) v1 by Roger Miller - guitar chords, guitar tabs and lyrics - chordie

Whistle Stop (robin Hood Theme) v1

Roger Miller

 -------------------------------------------

-------------------------------------------
E--------------------------------|-----------------------|
B--------------------------------|-----------------------|
G--4--3-4--0---0-----------------|--4--3-4--0-----0--2---|
D------------------0h2----2--0---|--------------4--------|
A--------------------------------|-----------------------|
E--------------------------------|-----------------------|
 GGGG
E----------------------------|-------------------||
B-------------------3-1------|------------------o||
G--4--3-4--0--0--0-------0---|-------0--2--4-0---||
D----------------------------|--0h4--------------||
A----------------------------|------------------o||
E----------------------------|-------------------||

D> G> C> G> G.

Guitar accompaniment:

E---------------------------------------------
B----0---0----0---0----0---0----0---0----0---0
G----0---0----0---0----0---0----0---0----0---0
D----0---0----0---0----0---0----0---0----0---0
A--2--------2--------2--------2--------2------
E------3--------3--------3--------3--------3--


 GGGGG
E----2---------------------------------------||
B----3---3----0---0----1---1----0--0--------o||
G----2---2----0---0----0---0----0--0--0------||
D--0-----0----0---0----3---3----0--0--0------||
A------0----2--------3--------2-------2-----o||
E---------------3--------3--------3---3------||


 DGCGG



















C D G
variations - click chord images
Transpose chords:
Tuning:
Cool service:
View: Size:
A  A  A
Rating:
Layout:
  • Currently 0/5 Stars.
  • 1
  • 2
  • 3
  • 4
  • 5
 
Accuracy:
  • Currently 0/5 Stars.
  • 1
  • 2
  • 3
  • 4
  • 5
 
click stars to rate
Chordie recommends:
Check out JamPlay.com for online video guitar lessons
Songbook:
Login to add this song to your songbook
Support the artist
Preview/buy this song
MSN Music
Why this non-profit ad?

 
login to add comments/video/corrections