Guitar Tabs, Chords and Lyrics
Major upgrade!! After one year development the new version of Chordie is now online! Please give feedback.


Kiss Me  Sixpence None the Richer

Band/Song: Sixpence--'Kiss Me'
Copyright: 1997 Le tigre sur un balloon publishing/Squint songs
Tabbed by: Wes Marlan (guitarwez@hotmail.com)
URL (Christian Music Resources):
http://www.geocities.com/collegepark/9761/ccmusic.html
Sixpence and their #1 hit.
Amazing. I've been following them since 'The Fatherless & the Widow'.
Hopefully, their success continues with the releases to come...
I know someone already tabbed this out but this tab gets the solo
and other melodies Matt layers in the song. There's a few chord
changes, too, as well as a guitar transcription of the accordion.
________________________________________________________
*Capo 3rd fret (all chords and notes relative to capo)
*Standard Tuning (EADGBE)
 
 *Chords: C-----(X32010) Am--(X02210) 

Cmaj7-(X32000) C/B-(X22010)
C7----(X32310) Am7-(X02010)
 
 F-----(133211) C/G-(3X2010)

___________[G-----(355433)]_____________________________________________
Intro: C Cmaj7 C7 Cmaj7 (x2)
Verse:
[C] [Cmaj7] [C7]  
[Cmaj7]  
[C] [Cmaj7] [C7] 
_____________________________[Cmaj7]___________________________
Chorus:
[F] [G] [C] [Am]  
[F] [G] [C] [C7]  
[F] [G]  
[C]C/G [C/B] *tab[Am7]
*tab:
 
 E-------0-------0--3-3-
 B---------1---1-1--1-0-
 G-----0-----0---0--0-0-
 D---2-----------2--0-0-
 A-3-------------3--2-2-
 E------------------3-3---

________________________________________________________
Verse 2: C Cmaj7 C7 Cmaj7
added guitar:
 
 E----------------------------------
 B-1---1----1--------1--------1-----
 G---0--------0-4------0-3------0-4-

(same chords as first verse)
________________________________________________________
Repeat Chorus
Post-Chorus:
Guitar 1:
 
 E----------------------------0-----
 B-----------1--------------3---3---
 G-----0-------0--------0---------0-
 D---2---2-------2----2---2--------- (x4)
 A-3----------------3---------------
 E----------------------------------

Guitar 2 (comes in on second time around for the above tab)
 
 E----------------------------------
 B-1---1----1--------1--------1-----
 G---0--------0-4------0-3------0-4-

Accordion (on the guitar, that is):
 
 E---------------------------
 B-------8-------8-----------
 G-9---7---9---7---9---7-9---
 D-------------------------5-
 A---------------------------
 E---------------------------

_____________________________________________________
Solo (pretty close):
 
 E-5---5-0-------------------------5---5-0-----------------------
 B-5h6-5-0-----0---5h6-5-----------5h6-5-0-----0-----------------
 G-7---7-0---0---0-------7-5-------7---7-0---0---0-5-5-5/7-7-7/9-
 D---------0-----------------7-7-----------0---------------------
 A---------------------------------------------------------------
 E---------------------------------------------------------------

_____________________________________________________
Repeat Chorus
Ending: C Cmaj7 C7 Cmaj7 (x4)
(background guitar)
 
 E----------------------------------
 B-1---1----1--------1--------1-----
 G---0--------0-4------0-3------0-4-

Accordion
 
 E---------------------------
 B-------8-------8-----------
 G-9---7---9---7---9---7-9--- That's it! Corrections welcomed...
 D-------------------------5-
 A---------------------------
 E---------------------------


Important: The song above is NOT stored on the Chordie server. The original song is hosted at www.christianguitar.org. Chordie works as a search engine and provides on-the-fly formatting. Chordie does not index songs against artists'/composers' will. To remove this song please click here.

Text color:
Chord color:
Chord grids: 
Font size:    
Page size: 

Am Am7 C C/B C7 Cmaj7 F G
Rate #1 of 28 versions

Jango Player

Login - add to songbook

SHARE PAGE  




You need to log in to post comments