eToCache5 = ""; ?> Tonight i just need my guit by Gcc - guitar chords, guitar tabs and lyrics - chordie

Tonight i just need my guit

Gcc

 DD/B
e------2--------------2-------
B------3----------3---3-------
G-----------------0------------
D---0-------------------------
A------------0-2--------------
E-----------------------------

 DD/BDD/B
 Gulf coast nights, flounder lights 
 DD/BDD/B
 I'm back on the eastern shore  
 DD/BDD/B
 with my history of wrecks I think its time to check  
 A7Bm7(5)/AC5/A
the crab trap of life once more  
Need is a relative thing these days
it borders on desire
the high tech world is full of bright shiny things
We think that we really require
Chorus :
 GABm
 Sometimes more that others  
 CBmA
 You see who and what and where you are
 GDGD
I'm a one man band with no immediate plans 
 GAD
 Tonight I just need my guitar 
Don't need to feel important or famous
No limos or my little Nash car
One lucky man with my feet in the sand,
Tonight I just need my guitar
Last line, verse 1
 A7B13/AC5/AB13/AA7
e----------------------------------------
B---2--2--2---3-------5-----3-5-3---2-3-2--
G---0--------(0)---------------------------
D---2--2--2---4----5-----5--4-------2---
A-----------------0---------------------
E-------------------------------------------















A A7 Bm C C5/A D D/B G
variations - click chord images
Transpose chords:
Tuning:
Cool service:
View: Size:
A  A  A
Rating:
Layout:
  • Currently 0/5 Stars.
  • 1
  • 2
  • 3
  • 4
  • 5
 
Accuracy:
  • Currently 1/5 Stars.
  • 1
  • 2
  • 3
  • 4
  • 5
 
click stars to rate
Chordie recommends:
Learn to play this song & others via video guitar lessons at JamPlay.com
Songbook:
Login to add this song to your songbook
Support the artist
Preview/buy this song
MSN Music
Why this non-profit ad?

 
login to add comments/video/corrections