Sulk

Radiohead

e----------------------------------------------|---2--0----------0--------2-0--

B---3--2-------3--2-------1--0--------3--2-----|--------2----------3--0-------2

G---------2----------2----------0-----------2--|----------(x2)-----------------

D-0----------0---------------------0-----------|-0----------------------0------

A-----------------------3----------------------|---------------3---------------

E----------------------------------------------|-------------------------------


 GCadd9Dsus4D
e-3------------3-3-3-3-3----3-3-3-3-3-3--2-2-2-2-2---|-------------------------
B-3------------3-3-3-3-3----3-3-3-3-3-3--3-3-3-3-3---|-------3-----3-----------
G-0-0-0--------0-0-0-0-0-0--2-2-2-2-2-2--2-2-2-2-2-0-|---2-2---2-2---2-2-2-2---
D-0-0-0-0---0--2-2-2-2-2-0--0-0-0-0-0-0--0-0-0-0-0-0-|-0-----------------------
A-2-2-2-2-3----3-3-3-3-3-0---------------------------|-------------------------
E-3-3---3--------------------------------------------|-------------------------

Interlude
e------------------------------------------------------------------------------
B------------------------------------------------------------------------------
G----------9--9-9-8-8--8-8-4-4-x-x-x-------------9--9-9-8-8--x-8-4-4-x-4-x-----
D------------------------------x-x-x-------------------------x-------x---x-----
A----------7--7-7-6-6--6-6-2-2-x-x-x-------------7--7-7-6-6--x-6-2-2-x-2-x-----
E-0--0-0-0----------------------------0--x-x-x-x---------------------------0-0-
e------------------------------------------------------------------------------
B------------------------------------------------------------------------------
G-7--7-7-7-7-7--7-7-7-7-6--6-6-x--------------9--9-x-x-9--9-9-8-8-17-17-17-17--
D------------------------------x--7--7-7-----------x-x-------------------------
A-5--5-5-5-5-5--5-5-5-5-4--4-4-x--------------7--7-x-x-7--7-7-6-6-15-15-15-15--
E---------------------------------5--5-5--0-0----------------------------------
e------------------------------------------------------------------------------
B------------------------------------------------------------------------------
G-17-16-14--13-----------13--13-13\11-11-------14--14-----13-13--------13----11
D------------------------------------------------------------------------------
A-15-14-12--11-----------11-----11\9---------------12--------------------------
E---------------x-x-x-x------------------x-x-x--------x--x------x-x-x-x---x----
e------------------------------------------------------------------------------
B------------------------------------------------------------------------------
G-11/17-17-17-17-17-16-14-12---------12-12-12-12\11-11-11-11-6--6--6/9--9--9---
D------------------------------------------------------------------------------
A--9/15-15-15-15-15-14-12------------10-10-10-10\9--9--9--9--4--4--4/7--7--7---
E----------------------------0-0-0-0-------------------------------------------
 Riff 1-------------------]      Riff 2-----------------]
e--------------------------|     ------------------------|
B--------------------------|     ------------------------|
G-9-9-9-9-9-9-9-9-9-9-9-9--| x 5 -4--4-4-4-4-6-6-6-6-6-6-| Riff1 x3  

Riff2 x1
D--------------------------|     ------------------------|
A-7-7-7-7-7-7-7-7-7-7-7-7--|     -2--2-2-2-2-4-4-4-4-4-4-|
E--------------------------|     ------------------------|
e------------------------------------------------------------------------------
B------------------------------------------------------------------------------
G-14-14-14-14-14-14-14-14-14-14-14-14-14--13-13-13-13-13-13-13-13-13-13-13-13-9
D------------------------------------------------------------------------------
A-12-12-12-12-12-12-12-12-12-12-12-12-12--11-11-11-11-11-11-11-11-11-11-11-11-7
E------------------------------------------------------------------------------
e           ------------------------0--
B           ------------------------0--
G           -9--9-9-9-9-4--4-4-4-4--4--
D Riff1 x1  ---------------------------
A           -7--7-7-7-7-2--2-2-2-2--2--
E           ------------------------0--

=======================================
Guitar Archive at Planet Telex
http://www.underworld.net/radiohead/
Max Kolombos
---------------------------------------
































Cadd9 D Dsus4 G
variations - click chord images
Transpose chords:
Tuning:
Cool service:
View: Size:
A  A  A
Rating:
Layout:
  • Currently 2.7/5 Stars.
  • 1
  • 2
  • 3
  • 4
  • 5
 
Accuracy:
  • Currently 2.7/5 Stars.
  • 1
  • 2
  • 3
  • 4
  • 5
 
click stars to rate
Chordie recommends:
Get acoustic guitar lessons and electric guitar lessons at JamPlay.com
Songbook:
Login to add this song to your songbook
Support the artist
Preview/buy this song
MSN Music
Why this non-profit ad?

 
login to add comments/video/corrections