Guitar Tabs, Chords and Lyrics


abuse me   Silverchair


|-----------------------------------------------------------------|







|-----------------------------------------------------------------|







|---------6---------------6---------------2-0-------------2-------|


|-----0-----0---------0-----0----------0------0---------0---0-----|


|---7---7-----7-----7---7-----7-----3----3------3-----3-------3---|


|-7-------------7---------------7\3-----------------3-----------3-|


|---------------------------------------------------|


|---------------------------------------------------|


|-------6---6-0-------------6-----------2---2-0-----|


|---------0-----0---------0---0---------------------|


|-----7-----------7-----7-------7-----3---3-----3---|


|---7-----------------7-----------7\3-------------3-|


|-0-0-0-0/0-0--0-0-0-0/0-0--0-0-0-0/0-0--0-0-0-0/0-0--0-0/0-|


|-0-0-0-0/0-0--0-0-0-0/0-0--0-0-0-0/0-0--0-0-0-0/0-0--0-0/0-|


|-2-2-2-2/4-4--2-2-2-2/4-4--2-2-2-2/4-4--2-2-2-2/4-4--4-4/6-|


|-0-0-0-0/0-0--0-0-0-0/0-0--0-0-0-0/0-0--0-0-0-0/0-0--0-0/0-|


|-3-3-3-3/5-5--3-3-3-3/5-5--3-3-3-3/5-5--3-3-3-3/5-5--5-5/7-|


|-3-3-3-3/5-5--3-3-3-3/5-5--3-3-3-3/5-5--3-3-3-3/5-5--5-5/7-|


|------------------------------------------------------------------


|------------------------------------------------------------------


|------------------------------------------------------------------


|-----7---------7---------7-----7------3---------3--------3-----3--


|---7---7---7-------7---7---7--------3---3---3------3---3---3------


|-7-------7---7-------7-------7----3-------3---3------3-------3----


 ------------------------------------------------------------|


 ------------------------------------------------------------|


 -------------------------------------------------1--1-1-1-1-|


 -----7--------7-------7-------7--------3-----3---0--0-0-0-0-|


 ---7---7----7---7---7---7---7---7----3---3-----3-2--2-2-2-2-|


 -7-------7--------7-------7--------3-------3-----2--2-2-2-2-|




bridge


                                                                        


|---------------------------------------------------|
|---------------------------------------------------|
|-2--2-2-2--5-----11-11-11-11-11/12-12-12-12/14-14--|
|-2--2-2-2--5--0------------------------------------|
|-0--0-0-0--3--0--9--9--9--9---9/10-10-10-10/12-12--|
|--------------0------------------------------------|
|-----------------------------------------|
|-----------------------------------------|
|-2--2-2-2--5------5/7-7-7-7/9-9-9-9\7-7--|
|-2--2-2-2--5---0-------------------------|
|-0--0-0-0--3---0--3/5-5-5-5/7-7-7-7\5-5--|
|---------------0-------------------------|
|-----------------------------------------------------------------|
|-----------------------------------------------------------------|
|-2--2-2-2-5------11-11-11-11-11/12-12-12-12/14-14--2--2-2-2-5----|
|-2--2-2-2-5---0------------------------------------2--2-2-2-5--0-|
|-0--0-0-0-3---0--9--9--9--9---9/10-10-10-10/12-12--0--0-0-0-3--0-|
|--------------0------------------------------------------------0-|




      pm_____|       pm_____|


                                                                        


|-----------------------------------------------------------------|
|-----------------------------------------------------------------|
|-----------------------------------------------------------------|
|-0-0-0-0-0-3-3-0--0-0-0-0-3-3-0--3-3-0--3-3-0---0-0-0-0-0-0-0----|
|-0-0-0-0-0-3-3-0--0-0-0-0-3-3-0--3-3-0--3-3-0---0-0-0-0-0-0-0----|
|-0-0-0-0-0-3-3-0--0-0-0-0-3-3-0--3-3-0--3-3-0---0-0-0-0-0-0-0----|


Important: The song above is NOT stored on the Chordie server. The original song is hosted at www.geocities.com. Chordie works as a search engine and provides on-the-fly formatting. Chordie does not index songs against artists/composers will. To remove this song please click here.

This song is displayed as text-only. Transposing and tuning is only available for chordpro-songs.

Login - add to songbook

Rating click stars to rate

Layout
Accuracy

SHARE PAGE  




You need to log in to post comments