Chordie logo

all along   Offspring



Date: Monday October 30, 2000

Group: Offspring
Album: Conspiracy Of One
Released: 2000 columbia records
Track: 10
Title: all along

pm - palm mute
: - let ring
intro

|-----------------------------------------------------|
|-----------------------------------------------------|
|-9-9-9-9-9-9-7-7-7--------------------5-5-5-12-12-12-|
|-9-9-9-9-9-9-7-7-7-5-5-5--7-7-7-7-7-7-5-5-5-12-12-12-|
|-7-7-7-7-7-7-5-5-5-5-5-5--7-7-7-7-7-7-3-3-3-10-10-10-|
|-------------------3-3-3--5-5-5-5-5-5----------------|

verse
pm____________________________________________________________
|-------------------------------------------------------------
|-------------------------------------------------------------
|-------------7-7-7-7-7-7-------------5-5-5-------------------
|-2-2-2-2-2-2-7-7-7-7-7-7-7-7-7-7-7-7-5-5-5-5-5-5-2-2-2-2-2-2-
|-2-2-2-2-2-2-5-5-5-5-5-5-7-7-7-7-7-7-3-3-3-5-5-5-2-2-2-2-2-2-
|-0-0-0-0-0-0-------------5-5-5-5-5-5-------3-3-3-0-0-0-0-0-0-
 ______________________________|
 ----------------------------------------|
 ----------------------------------------|
 -7-7-7-7-7-7-------------5-5-5-12-12-12-|
 -7-7-7-7-7-7-7-7-7-7-7-7-5-5-5-12-12-12-|
 -5-5-5-5-5-5-7-7-7-7-7-7-3-3-3-10-10-10-|
 -------------5-5-5-5-5-5----------------|

chorus / post chorus

|----------------------------------------------------|
|----------------------------------------------------|
|-9-9-9-9-9-9-7-7-7-7-7-7-------------5-5-5-12-12-12-|
|-9-9-9-9-9-9-7-7-7-7-7-7-7-7-7-7-7-7-5-5-5-12-12-12-|
|-7-7-7-7-7-7-5-5-5-5-5-5-7-7-7-7-7-7-3-3-3-10-10-10-|
|-------------------------5-5-5-5-5-5----------------|

bridge

|-----------------------------------------------------|
|-----------------------------------------------------|
|-9:---9:-----------7-7---------5-5-------------7-7-9-|
|-9:---9:---\-2-2---7-7---7-7---5-5--5-5---2-2--7-7-9-|
|-7:---7:---\-2-2---5-5---7-7---3-3--5-5---2-2--5-5-7-|
|-----------\-0-0---------5-5--------3-3---0-0--------|

outro

|------------------|
|------------------|
|------5-5-12-12-9-|
|-7:---5-5-12-12-9-|
|-7:---3-3-10-10-7-|
|-5:---------------|

lyrics

deep inside secret's burning should have known all the while what's true
i went along to fool myself, can't go on i can't escape it
all along i think i really knew it was there in the words unspoken
all along still believed in you now i stand here betrayed and broken

close my eyes from the burning all along all the while it's true
take it on or turn your back, either way you can't escape it


Important: The song above is NOT stored on the Chordie server. The original song is hosted at www.geocities.com. Chordie works as a search engine and provides on-the-fly formatting. Chordie does not index songs against artists/composers will. To remove this song please click here.

This song is displayed as text-only. Transposing and tuning is only available for chordpro-songs.

Login - add to songbook

Rating click stars to rate

Layout
Accuracy

SHARE PAGE  



You need to log in to post comments